rock
 
|tablatures   |lyrics   |discussion forums   |more tabs @ XGuitar.com

Marilyn Manson tabs

Slutgarden bass tab

Mxtabs [http://www.mxtabs.net]
Marilyn Manson
Slutgarden
The Golden Age
Tuning DADG
Main riff (played on guitar but can be played on bass)
|------------------------------------|
|------------------------------------|
|------------------------------------|
|--0-5-33-5-3-5-6-5--5-33-5-3-0-3-5--|
Chorus
|----------------------------------|
|----------------------------------|
|----------------------------------|
|---3-3-3-3-3-5--0-0-0-0-0-0-0-0--|

bridge
|----------------|
|----------------|
|----------------|
|--6-6-6-6-6-----|

|----------------|
|----------------|
|-0---0---0------| (I never believed the devil was real...)
|---7---7---7----|

Outro Synth

This is my first attempt at this song can corrections please leave them
  development and support by
dmitry ivanov