rock
 
|tablatures   |lyrics   |discussion forums   |more tabs @ XGuitar.com

Marilyn Manson tabs

(S)aint guitar tab

sAINT

e-mail:dead_evil4@hotmail.com

drop D

Verse: w/ effects
--------------------------------------------
--------------------------------------------
--------------------------------------------
---0-0-0h3-3------0h5-0-----0-0-------------
------------------------------------3p0-3---
---0-0--------0-0-------0-0-----0-0---------

Pre chorus:
-----------------------------
-----------------------------
-----------------------------
---3-3-3-3-5-0-0-7-0-0-7-0---
---3-3-3-3-5-0-0-5-0-0-5-0---
---3-3-3-3-5-0-0---0-0---0---

Chorus:
---------------------------|---------------
---------------------------|---------------
---------------------------|---10-9--8-7---
---0-0---0-0---0-0--0--0---|---------------
---0-0---0-0---0-0--0--0---|---------------
---0-0---0-0---0-0--0--0---|---------------

Pre verse:
-----------------------------------
-----------------------------------
-----------------------------------
-----------------------------------
---0-8-8-0-10-10---0-8-8-0-10-10---
---0-0-0-0-0--0----0-0-0-0-0--0----
  development and support by
dmitry ivanov