rock
 
|tablatures   |lyrics   |discussion forums   |more tabs @ XGuitar.com

Marilyn Manson tabs

(S)aint bass tab

Band: Marilyn Manson
Album: The Golden Age Of Grotesque
Song: (s)AINT
Tabbed by: Matthew Cook
E-mail: Raiven14@aol.com

h = hammer-on
p = pull-off
~ = let note ring
^ = bend
x = mute

Tuning: Dropped D

Synth and drums start the song.

Bass comes in on the chorus;
G|--------------------
D|--------------------
A|-8-888-10-5-5555-3--
D|-------------------- x4

Straight after the chorus;
G|------------------------
D|------------------------
A|------------------------
D|-0-0--0-0----0-0--0--0-- x4

Guitar only plays, then back to synth and drums.

Then back to the chorus;
G|--------------------
D|--------------------
A|-8-888-10-5-5555-3--
D|-------------------- x4

G|------------------------
D|------------------------
A|------------------------
D|-0-0--0-0----0-0--0--0-- x4

Another break with more synth stuff...

Come back in with;
G|------------------------
D|------------------------
A|------------------------
D|-0-0--0-0----0-0--0--0-- x4

Next part is either distorted bass on it's own or synth.
The part is;
G|--------------------
D|--------------------
A|-8-888-10-5-5555-3--
D|-------------------- x4

Back to;
G|------------------------
D|------------------------
A|------------------------
D|-0-0--0-0----0-0--0--0-- x8

Song Ends.
  development and support by
dmitry ivanov