rock
 
|tablatures   |lyrics   |discussion forums   |more tabs @ XGuitar.com

Marilyn Manson tabs

Rock Is Dead guitar tab

             Rock is Dead
                Mailyn Manson
              Mechincal Animals
        Tab by Dustin Ragsdale ziggy_stardust@metallica.com

/= slide down
\= slide up
*= artafical harmonics
        standard tuneing
mean theme

guitar:
note two times to evey one bass time
----------------------------|
----------------------------|
----------------------------|
--------3*---------3*-------|
-2-2-2------2-2-2------22--5|
-0-0-0------0-0-0------00--3|

bass:
note also is verse
----------------------------------------------------|
----------------------------------------------------|
----------------------------------------------------|
-0-0-0-0---0-0-0-0---00--3--0-0-0-0---0-0-0-0--7-6-5|

Pre Chorus

---------------------------------|
---------------------------------|
---9------7----7-----5-----------|
---9------7----7-----5-----------|
---9------7----7-----5-----------|
---7------5----5-----3-----------|
Bass:
---------------------------------|
---------------------------------|
---------------------------------|
---7-----5----5------3-----------|

chours

-------------------------------------------------------------------|
-------------------------------------------------------------------|
-------------------------------------------------------------------|
-9--7-7-7--9--7-7-7--7--5-5-5--7--5-5-5--5--3-3-3--5--3-3-3-2-2-2-2|
-9--7-7-7--9--7-7-7--7--5-5-5--7--5-5-5--5--3-3-3--5--3-3-3-2-2-2-2|
-7--5-0-5--7--5-0-5--5--3-0-3--5--3-0-3--3--1-0-1--3--1-0-1-0-0-0-0|

------------|
------------|
------------|
-5-5-5-5----|
-5-5-5-5----|
-3-3-3-3----|

bass:

--------------------------------------------------------------------|
--------------------------------------------------------------------|
--------------------------------------------------------------------|
-7--5-0-5--7--5-0-5--5--3-0-3-- 5-3-0-3--3--1-0-1--3--1-0-1-0-0-0-0-|

-------------|
-------------|
-------------|
-3-3-3-3-----|


sYNTH PART

well there you go listen to the cd for arrangements and timeing
hope you can you use it

------------ other transcription ---------------


Rock Is Dead by Marilyn Manson

from Andrew McNeil

Tuning: Drop D

p= palm mute
/= slide up


Intro/Bridge
|--------------------------------|
|--------------------------------|
|--------------------------------|
|------4--------4--------4-------|
|-4--4---4-4--4---4-4--4---4-4--7|
|-4--4---4-4--4---4-4--4---4-4--7|
         p        p        p


Verse - Bass and Drums only


\"Anything to belong\"
|-------------|
|-------------|
|-------------|
|-------------|
|-7-/-10-/-12-|
|-7-/-10-/-12-|



Chorus
|--------------------|--------------------|
|--------------------|--------------------|
|--------------------|--------------------|
|-4--2-4-2--4--2-4-2-|-2--0-2-0--2--0-2-0-|
|-4--2-4-2--4--2-4-2-|-2--0-2-0--2--0-2-0-|
|-4--2-4-2--4--2-4-2-|-2--0-2-0--2--0-2-0-|

|--------------------|---------------------------|
|--------------------|---------------------------|
|--------------------|---------------------------|
|-3--2-3-2--3--2-3-2-|-4-4-4-4-4-4--7-7-7-7-7-7-7|
|-3--2-3-2--3--2-3-2-|-4-4-4-4-4-4--7-7-7-7-7-7-7|
|-3--2-3-2--3--2-3-2-|-4-4-4-4-4-4--7-7-7-7-7-7-7|


Extra
|---------------------------------|
|---------------------------------|
|---------------------------------|
|------4--------4--------4-------4|
|---------------------------------|
|---------------------------------|


Intro                   X4  
Verse                     
\"Anything to belong\"    X2
Chorus                  X1
Pause
Bridge                  X4
Verse
\"Anything to belong\"    X2
Chorus                  X1
Pause
Extra                   X2
Bridge                  X4
\"Anything to belong\"    X2
Chorus                  X2
  development and support by
dmitry ivanov