rock
 
|tablatures   |lyrics   |discussion forums   |more tabs @ XGuitar.com

Marilyn Manson tabs

Rock Is Dead bass tab

Here is the tab for Rock is Dead.


Song:  Rock is Dead
Written by: Marilyn Manson
Tab by: Nick DiMaria

Oh yeah and this is my work so you can't steal it unless I give it to you, or something

Standard Tuning (E A D G)

Verses and Bridge
G:|--------------------------|----------------------------|
D:|--------------------------|----------------------------|
A:|--------------------------|--------------------/9-7-5--|
E:|--0-0-2-0-0-2-0-0-2-3--5--|--0-0-2-0-0-2-0-0-2---------|

Pre-Chorus
G:|---------------------|
D:|---------------------|
A:|---------------------|
E:|--2----3--4--5-6--7--|

Chorus
G:|-------|-------|-------|-----------|
D:|:-----:|:-----:|:-----:|-----------|
A:|:-----:|:-----:|:-----:|-----------|
E:|---2---|---0---|---3---|--5-4-3-1--|

After Chorus
G:|-------------------------|
D:|-------------------------|
A:|-------------------------|
E:|--x--x--x--x-xxxxxxx-/8--|

Order of the Riffs:

Feedback intro
Verse x 4
Pre-Chorus x 1
Chorus x 1
After chorus x 1
Verse x 2
Short rest
Verse x 4
Pre-chorus x 1
Chorus x 1
After chorus x 1
Etc. etc. etc.

Email corrections and shit to mansonfreakboy@hotmail.com 
  development and support by
dmitry ivanov