rock
 
|tablatures   |lyrics   |discussion forums   |more tabs @ XGuitar.com

Marilyn Manson tabs

President Dead guitar tab

      MARILYN MANSON ONLINE
     http://manson.rmp3.net/
        
        HOLY WOOD TABS


Tabbed by : julian015@hotmail.com
Artist    : Marilyn Manson
Album     : Holy Wood (In The Shadow Of The Valley Of Death)
Song      : Track #6 - President Dead

Tuning: Drop D (DADGBE)

Key :

/ = slide up 
\ = slide down
xbyrx = bend note x up to note y, then release the bend from note y back to note x

Intro 

E|--------------------------------------|
B|-----11-11-11-11b12r11-11-------------|
G|--------------------------10-10-10-10-|
D|-5-2----------------------------10-10-|
A|-5-2----------------------------------|
D|-5-2----------------------------------|

Distorted guitar #1 ("Get high on violence, baby")

B|-------------------|
G|-7---------7/9-9-\-|
D|-7---------7/9-9-\-|
A|-5---------5/7-7-\-|
D|-------------------|

Distorted guitar #2 ("And we don't want to live forever..")
* = play note 8 times

G|----------------------------------|
D|--*7---*10---*5---4-4-4-4-3-3-3-3-|
A|--*7---*10---*5---4-4-4-4-3-3-3-3-|
D|--*7---*10---*5---4-4-4-4-3-3-3-3-|

This is played towards the end : 
Light/Clean guitar ("This is for the people, they want it")
~This can be played for this bit, just before the solo/interlude~

B|--------------|
G|-4------------|
D|-4----------2-|
A|-2----------2-|
D|------------2-|

Can't be buggered with the solo at the moment...

  development and support by
dmitry ivanov