rock
 
|tablatures   |lyrics   |discussion forums   |more tabs @ XGuitar.com

Marilyn Manson tabs

President Dead bass tab

President Dead - Marilyn Manson
Jon Craven (nojnevarc@hotmail.com)

Riff 1: (x4)
G:---------------|-------------|---------------|-------------|---------------|-------------|
D:---------------|-------------|---------------|-------------|---------------|-------------|
A:-------7-7-5-7-|----0--/7----|-------7-7-5-7-|----0--/7----|-------7-7-5-7-|----0--/7----|
E:-3--0----------|-0---------0-|-3--0----------|-0---------0-|-3--0----------|-0---------0-|

G:---------------|----------------|
D:---------------|----------------|
A:-5--5-5-5--5-5-|-5-5-5--7-7-7-7-|
E:---------------|----------------|

Riff 2:
G:-----------------|-----------------|-----------------|-----------------|-----------------|
D:-----------------|-----------------|-----------------|-----------------|-----------------|
A:-0-0-0-0-0-0-0-0-|-3-3-3-3-3-3-3-3-|-----------------|-----------------|-0-0-0-0-0-0-0-0-|
E:-----------------|-----------------|-3-3-3-3-3-3-3-3-|-2-2-2-2-1-1-1-1-|-----------------|

G:-----------------|-----------------|------------------|
D:-----------------|-----------------|-/9-9-9-9-8-8-8-8-|
A:-3-3-3-3-3-3-3-3-|-----------------|------------------|
E:-----------------|-3-3-3-3-3-3-3-3-|------------------|

Riff 1

Riff 3: (x2)
G:--------------|-------------|--------------|-------------|--------------|-------------|
D:--------------|-------------|--------------|-------------|--------------|-------------|
A:--------------|-------------|--------------|-------------|--------------|-------------|
E:-3--0--0-0--0-|-0-0-0--0--3-|-3--0--0-0--0-|-0-0-0--0--3-|-3--0--0-0--0-|-0-0-0--0--3-|

G:---------------|----------------|
D:---------------|----------------|
A:-5--5-5-5--5-5-|-5-5-5--7-7-7-7-|
E:---------------|----------------|

Riff 2

Riff 4: (x2)
G:----------|----------|----------|----------|----------|----------|----------|----------|
D:----------|----------|----------|----------|----------|----------|----------|----------|
A:-2*******-|-********-|----------|----------|-2*******-|-********-|----------|----------|
E:----------|----------|-0*******-|-********-|----------|----------|-3*******-|-0*******-|

Riff 2 (x4)

End:
G:------------|
D:------------|
A:------------|
E:-3--5--R--R-|

Break till end
  development and support by
dmitry ivanov