rock
 
|tablatures   |lyrics   |discussion forums   |more tabs @ XGuitar.com

Marilyn Manson tabs

Posthuman guitar tab

posthuman - marilynmanson mechanical animals - tabbed by jonden@ix.netcom.com 

part 1 (main riff) 
E---------7- 
B----------- 
G----------- 
D--9~-7---- 
A----------- 
E----------- 

part 2 
----------------------------------------- 
----------------------------------------- 
----------------------------------------- 
-12-12-12-12-10-10-10-10-9-9-9-9-9-9-9-9- 
-12-12-12-12-10-10-10-10-9-9-8-8-9-9-8-8- 
-10-10-10-10--8---8 -8 --8 7-7-7-7-7-7-7-7-

part 3 close to end, might be keyboard 
-14------------------- 
----14-15-14-15-14- 
---------------------- 
---------------------- 
---------------------- 
-----------------------

  development and support by
dmitry ivanov