rock
 
|tablatures   |lyrics   |discussion forums   |more tabs @ XGuitar.com

Marilyn Manson tabs

Portrait Of An American Family guitar tab

From: suicide(is painless)snowman 
Artist:	Marilyn Manson
Album:	Portrait of an American Family
Song:	Dope Hat

this is the way i learned to play it, so if you concider it wrong, i cant do anything about that.

/=slide up to nut(or slide to next note)  =slide downward towards pickups ^=bend note 

intro (after 7 or 8 seconds of silence)
               play twice                                 play after second time
1|-----|----------------------------------------------------|------
2|-----|----------------------------------------------------|------
3|-11/-|----------------------------------------------------|------
4|-11/-|-4-4-4-4-4-4-7-7-7-7-7-7-4-4-4-4-4-4-10-10-10-9-9-9-|-4----
5|--9/-|-4-4-4-4-4-4-7-7-7-7-7-7-4-4-4-4-4-4-10-10-10-9-9-9-|-4----
6|-----|-2-2-2-2-2-2-5-5-5-5-5-5-2-2-2-2-2-2--8--8--8-7-7-7-|-2----

main riff

1|------------------------
2|------------------------
3|------------------------
4|------------------------
5|-4-4-11-11-10-10-9-/----
6|-2-2--9--9--8--8-7-/----

(little intro solo thingy)

1|-17/-------------12---------------------
2|-----17/------------12---------12--13---
3|---------17/------------14--14----------
4|----------------------------------------
5|----------------------------------------
6|----------------------------------------

dont play main riff until it starts in the song

little solo between verses

1|-----------------------------------------------------------------------
2|----------12-12^-12^-12^-----------------------------------------------
3|-11-14-13----------------11-9-9-9-9-9-11-13^-13^-13^------9/-----11/---
4|------------------------------------------------------11/----11/-------
5|-----------------------------------------------------------------------
6|-----------------------------------------------------------------------

cont.
1|------------------------------------
2|----------------------12^-12^-12^---
3|-13-11-13-11-13-11-13---------------
4|------------------------------------
5|------------------------------------
6|------------------------------------

"fail to see the tragic"
here, play the intro riff twice, without the little ending part.

chorus

1|----------------------------------------------------------------------------
2|----------------------------------------------------------------------------
3|-9-9-9-9/-5-5-5-5 -9-9-9-9/-5-5-5-5 -11-11-11-11/-7-7-7-7 -11-11-11-11/-7-7-
4|-9-9-9-9/-5-5-5-5 -9-9-9-9/-5-5-5-5 -11-11-11-11/-7-7-7-7 -11-11-11-11/-7-7-
5|-7-7-7-7/-3-3-3-3 -7-7-7-7/-3-3-3-3 --9--9--9--9/-5-5-5-5 --9--9--9--9/-5-5-
6|----------------------------------------------------------------------------

little down stepping part after he sings "WEARING ME!"

1|-----------------------------------------------------------
2|-----------------------------------------------------------
3|-11-11-11-10-10-10-9-9-9-8-8-8-7-7-7-6-6-6-5-5-5-4-4-4/----
4|-11-11-11-10-10-10-9-9-9-8-8-8-7-7-7-6-6-6-5-5-5-4-4-4/----
5|--9--9--9--8--8--8-7-7-7-6-6-6-5-5-5-4-4-4-3-3-3-2-2-2/----
6|-----------------------------------------------------------

play intro riff

guitar solo (play each note along with the solo, listen very closely to it and youll see its played like this)

1|------------------------------------------------------------------------------
2|------------------------------------------------------------------------------
3|---------------------------------------9----9^-9^-9^-9^-10^-10^-10^-10^-9^-9^-
4|-------------------9-10-10-10-10-10-10--10------------------------------------
5|-9-9-9-12-12-12-12------------------------------------------------------------
6|------------------------------------------------------------------------------

cont.
1|------------------------------------------------------------------------
2|----------------------------5-------------------------------------------
3|-9^-9^-10^-10^-10^-10^/-6-6---6-5^--9-9-9-11-9-9-9-11-9-9-9-11-9-9-9-11-
4|------------------------------------------------------------------------
5|------------------------------------------------------------------------
6|------------------------------------------------------------------------

cont.
1|------------------------14-14-14-17-17-17-17-17/-
2|------------14-14-14-14--------------------------
3|-14-14-14-14-------------------------------------
4|-------------------------------------------------
5|-------------------------------------------------
6|-------------------------------------------------

play intro riff again
chorus

then little downstepping part, only play at the end of it the 2nd fret power chord on the 6th string, then the 9th fret power chord on the 5th string or the last note of the song.
  development and support by
dmitry ivanov