rock
 
|tablatures   |lyrics   |discussion forums   |more tabs @ XGuitar.com

Marilyn Manson tabs

Para-Noir guitar tab

Marilyn Manson
‘Para-noir’
‘The Golden Age Of Grotesque’
tabbed nongoth

Raised BE tuning: eBGEBE
(raise the standard D string to an E and the standard A string to a B; ie. raise both by 2 frets)

This is such an awesome song that I thought it just had to be tabbed. I think this is the first tab on mxtabs so use it well.

Verse Riff:
e:-----------------------3-|%|%|--------3----3----3------
b:--------5----5----5------|%|%|-----------------------5-
e:--0--0-----0----0----0---|%|%|--0--0-----0----0----0---

Pre-chorus:
e:---0--0---
b:---0--0---
e:---0--0---

Main Riff:
e:-0--0--10/12-12-12--10--x--10--0--0--10/12-12-12--13--x--13--
b:-0--0--10/12-12-12--10--x--10--0--0--10/12-12-12--13--x--13--
e:-0--0--10/12-12-12--10--x--10--0--0--10/12-12-12--13--x--13--

e:-0--0--10/12-12-12--10--x--10--|--13--13--13--13--13--13--13--13--
b:-0--0--10/12-12-12--10--x--10--|--13--13--13--13--13--13--13--13--
e:-0--0--10/12-12-12--10--x--10--|--13--13--13--13--13--13--13--13--

Pre-solo (w/ delay)
e:---------------------------------------------------------19-----19---
b:--21--21-21--21-21--21-21--21-21--21-20--20-20--20-20--20--20-20--20-
g:---------------------------------------------------------------------

Main Solo:
I don’t follow any tab here. I tend to just crank up some feedback, with loads of distortion and make it up as I go along. It’s great fun when you do it well.

End
  development and support by
dmitry ivanov