rock
 
|tablatures   |lyrics   |discussion forums   |more tabs @ XGuitar.com

Marilyn Manson tabs

Para-Noir bass tab

Band: Marilyn Manson
Album: The Golden Age of Grotesque
Song: Para-noir
Tuning: Standard


NB: Those are twelves's and fifteens's in the main riff.

Main Riff;
G|-------------------
D|-------------------
A|-00----------------
E|----12-12-12-15---- x3

G|-------------------
D|-------------------
A|-00----------------
E|----15-15-15-12---- x1

Pre-chorus A;
G|-------------------
D|-------------------
A|------------(5555)- <--- (these 5's are played
E|-00-----00---------  in the live version)

Pre-chorus B;
G|-------
D|-------
A|-------
E|-00----

Chorus;
G|-------------------
D|-------------------
A|---555-55---555-77-
E|-00-------00------- x3

G|-------------------
D|-------------------
A|---555-55-77777777-
E|-00---------------- x1


Song Structure:

Main riff x6
Pre-chorus A x4
Chorus x1
Main riff x4
Pre-chorus A x4
Chorus x1
Pre-chorus B x7
Pause for guitar solo
Pre-chorus B x4
Main riff x2
Pre-chorus B x5
Pause
Chorus x2
Main riff x5
End.
  development and support by
dmitry ivanov