rock
 
|tablatures   |lyrics   |discussion forums   |more tabs @ XGuitar.com

Marilyn Manson tabs

Mobscene guitar tab

Marilyn Manson - mObscene
Album: The Golden Age of Grotesque
Tabbed by: Pier-Philippe de Chevigny Le Blanc
Website: http://www.sub-cruelty.fr.st
ashthezombiesasskicker@hotmail.com

t = Tremolo picking
h = Harmonics

Main Riff

E-------------------------------
B-------------------------------
G-------------------------------
D-222-55--/7--252-020-----------
A-222-55--/7--252-020-----------
D-222-55-2/7--252-020-----------


Verse

E---------------11-12---------------
B----------------t--t-------------
G----------------h--h-------------
D-xxxxx-------------------------
A-xxxxx-020---------------------
D-xxxxx-020---------------------


Chorus (You want commitement, put on your best suit...)

E-----------------------------------------------
B-----------------------------------------------
G----------55555555----------55555555-----------
D-77777777-55555555-77777777-55555555-----------
A-77777777-33333333-77777777-33333333-----------
D-77777777----------77777777--------------------

E-----------------------------------------------
B-----------------------------------------------
G----------55555555-----------------------------
D-77777777-55555555-8888888888888888------------
A-77777777-33333333-8888888888888888------------
D-77777777----------8888888888888888------------

Outro

E-----------------------------------------------
B-----------------------------------------------
G-----------------------------------------------
D-777777777777777777-222-55-22------------------
A-777777777777777777-222-55-22------------------
D-777777777777777777-222-55-22------------------
  development and support by
dmitry ivanov