rock
 
|tablatures   |lyrics   |discussion forums   |more tabs @ XGuitar.com

Marilyn Manson tabs

Mobscene bass tab

Band: Marilyn Manson
Album: The Golden Age Of Grotesque
Song: mOBSCENE
Tabbed by: Matthew Cook
E-mail: Raiven14@aol.com

h = hammer-on
p = pull-off
~ = let note ring
^ = bend
x = mute

Tuning: Dropped D

Intro;
G|---------------------------------
D|---------------------------------
A|---------------------------------
D|-2-2-2-5-5-2-/7---2-5-2---0-2-0-- x4

Verse;
G|------------------
D|------------------
A|------------------
D|-x-x-x-x-x-0h2-0-- x12

Pre-Chorus;
G|---------------------------------
D|---------------------------------
A|---------------------------------
D|-2-2-2-5-5-2-/7---2-5-2---0-2-0-- x4

Chorus;
G|--------------------------------------
D|--------------------------------------
A|-00000000-33333333-00000000-33333333--
D|--------------------------------------

G|--------------------------------------
D|--------------------------------------
A|-00000000-33333333-11111111-11111111--
D|--------------------------------------

Cheerleader part;
G|------------------
D|------------------
A|------------------
D|-x-x-x-x-x-0h2-0-- x4

Verse;
G|------------------
D|------------------
A|------------------
D|-x-x-x-x-x-0h2-0-- x12

Pre-Chorus;
G|---------------------------------
D|---------------------------------
A|---------------------------------
D|-2-2-2-5-5-2-/7---2-5-2---0-2-0-- x4

Chorus;
G|--------------------------------------
D|--------------------------------------
A|-00000000-33333333-00000000-33333333--
D|--------------------------------------

G|--------------------------------------
D|--------------------------------------
A|-00000000-33333333-11111111-11111111--
D|--------------------------------------

Cheerleader part;
G|------------------
D|------------------
A|------------------
D|-x-x-x-x-x-0h2-0-- x8

Verse;
G|------------------
D|------------------
A|------------------
D|-x-x-x-x-x-0h2-0-- x12

Chorus;
G|--------------------------------------
D|--------------------------------------
A|-00000000-33333333-00000000-33333333--
D|--------------------------------------

G|--------------------------------------
D|--------------------------------------
A|-00000000-33333333-11111111-11111111--
D|--------------------------------------

Break (Synth Plays Pre-Chorus)

Outro;
G|---------------------------------
D|---------------------------------
A|---------------------------------
D|-2-2-2-5-5-2-/7---2-5-2---0-2-0-- x3

G|----------------------------------------------
D|----------------------------------------------
A|----------------------------------------------
D|-2-2-2-5-5-2-/7-7-7-7-7-7-7-7--2-2-2-5-5-0-2--

Song Ends.
  development and support by
dmitry ivanov