rock
 
|tablatures   |lyrics   |discussion forums   |more tabs @ XGuitar.com

Marilyn Manson tabs

Misery Machine bass tab

Marilyn Manson
Misery Machine 


intro and verse

g|---------------------------|
d|---------------------------|
a|------------5-----3--------|
e|---0--0--0-------------4---|

repeat 3 times then

g|-----------------------------|
d|-----------------------------|
a|-------3-----5-------5---5---|
e|---1-------------3-----------|

then for "when you ride, you've ridden"

g|-----------------------|
d|-----------------------|
a|-----------------------|
e|---0---3--4--3-4-3--4--|

then for  "i am fueled by...."

g|-----------------------------------------------------------|
d|-----------------------------------------------------------|
a|-----------------------------------------------------------|
e|-------0-------3-------5-----3------0------3-----5-----6---|

  development and support by
dmitry ivanov