rock
 
|tablatures   |lyrics   |discussion forums   |more tabs @ XGuitar.com

Marilyn Manson tabs

Mechanical Animals guitar tab

Artist: Marilyn Manson
Song: Mechanical Animals
Album: Mechanical Animals

(1) Intro 
E-------------------------------------------- 
B-------------------------------------------- 
G--7/9-9-9-9-9-9-9---14-14-14-14/16-16- 
D--7/9-9-9-9-9-9-9------------------------- 
A--5/7-7-7-7-7-7-7---12-12-12-12/14-14- 
E-------------------------------------------- 

(2)the rest of the intro I'm not sure about this part, the keyboards make it hard to hear ---------------------------------------------------- 
---------------------------------------------------- 
--9-9-X-X-9-X-9---9-----9-7-7-X-X-7-X-7---7- 
--9-9-X-X-9-X-9---9-----9-7-7-X-X-7-X-7---7- 
--7-7-X-X-7-X-7---7-----7-5-5-X-X-5-X-5---5- 
----------------------------------------------------- 

(3) This might be a keyboard but it sounds good with a flanger or phaser 
-------------- 
-------------- 
-----9-------- 
---9---9-7-9- 
-7------------ 
-------------- 

(4) This is the heavy part before the non distorted part I'm not listing the number of times to play on these 
-------------------- 
-------------------- 
------5--------5-4- 
-5-4-5---5-4-5-4-- 
-5-4-3---5-4-3-2-- 
-3-2-----3-2------- 

(5) Non distorted Part 
-------------------------------------- 
---------------8-8------------------- 
-9-9-9-9-7-7-7-7-7-5-5-5-5-5-5-5- 
-9-9-9-9-7-7-7-7-7-5-5-5-5-5-5-5- 
-7-7-7-7-5-5-5-5-5-3-3-3-3-3-3-3- 
-------------------------------------- 

(6) Suicide King Part 
---------------------------------------------------------------- 
---------------------------------------------------------------- 
-9-9-12-12-9-7-9---9-9-12-12-9-7-9--12-12-12-12-12-10- 
-9-9-12-12-9-7-9---9-9-12-12-9-7-9--12-12-12-12-12-10- 
-7-7-10-10-7-5-7---7-7-10-10-7-5-7--10-10-10-10-10- 8-- 
----------------------------------------------------------------
  development and support by
dmitry ivanov