rock
 
|tablatures   |lyrics   |discussion forums   |more tabs @ XGuitar.com

Marilyn Manson tabs

Lunchbox bass tab

                                                                              
 Lunch Box                                                                               
 Marilyn Manson
 tabbed by  Fred  freddy@soonet.ca

G-|----------------------------------7-7-7-5-----|
D-|--------------5-5-6h7-----------5---------7-5-|
A-|---7-7-7--5-7---------5-7-7-5-7---------------|
E-|----------------------------------------------|
                                                                               
   I am not totally sure about this part                                                                            
G-|------------------------------------------------------------|
D-|------------------------------------------------------------|
A-|----7---7------5-----5----2----2-------7-7-5------7-7-7-5---|
E-|--5---5----3-3---3-3----0---0-0----/-7-------7--7---------7-|
                                                                               
  development and support by
dmitry ivanov