rock
 
|tablatures   |lyrics   |discussion forums   |more tabs @ XGuitar.com

Marilyn Manson tabs

Lucy In The Sky With Demons bass tab

Marilyn Manson
Lucy in the Sky With Demons 

Tabbed by Ron

Guitar Intro - bass out

Intro

D|---------1----------3-1----------1----------1-3-|
A|-1-1-1-1----1-1-1-1------1-1-1-1----1-1-1-1-----|
E|------------------------------------------------|

(Repeat until "You're sick, and you're gonna stay sick.")

1st Verse

D|---------1-3----------3-1-|
A|-1--2--1------1--2--1-----|
E|--------------------------|

(After lyrics go "In our space we lie", play

A|-2//////////////////14-|

^Hold this note for a while, then slide quickly)

Pre-chorus("To an unseen god we will dance, dance, dance...")

Play Intro

Bridge

("Worship Satan...")
D|---13-15--------|
A|---------15--14-|
E|----------------|

(Repeat until "Sketch a little key hole...")

Bridge con't

("Sketch a little key hole...")

Play Intro

1st Chorus

("Cut, cut, cut in pantomine, mine, mine...")
A|-2-2-2-2-2-2-2--1-0----------------1-0-|
E|--------------------4-4-4-4-4-4-4------|

Bridge again

(There are no lyrics here, but the music is the same as in the
"Sketch a little key hole..." part)

Play Intro

1st Chorus ending

A|-2-1-|
E|-----|
(Repeat until lyrics start up again)

2nd Verse

Play Intro

2nd Chorus

Play line from 1st Chorus2nd Chorus ending

Play line from 1st Chorus ending, but add a short pause between each repeat.

  development and support by
dmitry ivanov