rock
 
|tablatures   |lyrics   |discussion forums   |more tabs @ XGuitar.com

Marilyn Manson tabs

Little Horn guitar tab

Little Horn 



tabbed by: jacob wall



drop d-tuning. all riffs majorly distorted



riff 1 (main riff)



e||-----------------------------------------------------------------||

B||-----------------------------------------------------------------||

G||-----------------------------------------------------------------||

D||--3-0-0-3-0-0-3-0-0-3-0-0-3-0-5---3-0-0-3-0-0-3-0-0-3-0-0-6-5-3--||

A||--3-0-0-3-0-0-3-0-0-3-0-0-3-0-5---3-0-0-3-0-0-3-0-0-3-0-0-6-5-3--||

D||--3-0-0-3-0-0-3-0-0-3-0-0-3-0-5---3-0-0-3-0-0-3-0-0-3-0-0-6-5-3--||



riff 2 (intro to chorus)



e||-----------------------------------||

B||-----------------------------------||

G||-----------------------------------||

D||--6-6-6-6-6-6-6-6-6-6-6-6-6-5-3-0--||

A||--6-6-6-6-6-6-6-6-6-6-6-6-6-5-3-0--||

D||--6-6-6-6-6-6-6-6-6-6-6-6-6-5-3-0--||



riff 3 (chorus riff: ripping distortion)



e||-----------------------------------------------------------||

B||-----------------------------------------------------------||

G||-----------------------------------------------------------||

D||--0-0-0-0-0-6--3--x-5--x-1--3-x-x-3-x-x-3-x-x-3-x-x-3-x-5--||

A||--0-0-0-0-0-6--3--x-5--x-1--3-x-x-3-x-x-3-x-x-3-x-x-3-x-5--||

D||--0-0-0-0-0-6--3--x-5--x-1--3-x-x-3-x-x-3-x-x-3-x-x-3-x-5--||



riff 4 (end of chorus and ending riff of song)



e||-----------------------||

B||--0--------------------||

G||--0--------------------||

D||--0-----------------1--||

A||--------------------1--||

D||--------------------1--||



riff 5 (bridge riff i guess but it sounds like the chords are

palm muted or its just really muddy distortion. palm mute all

open D's that 8aren't chords. slide up two frets and just let go

on that C chord)88 fill for riff 5



e||--------------------------||-------||

B||--------------------------||-------||

G||--------------5/----------||-------||

D||--6---5---3---5/----------||----0--||

A||--6---5---3---3/----------||----0--||

D||--6---5---3--------0-0-0--||--0-0--||





-----

Little Horn 



Tabbed Bye NeverBorn

slborn@zoomnet.net



all *'s are palm mutes

e|-----

b|-----

g|-----

d|-----

a|-----

e|-0---



e|-----------------------------------------------

b|-----------------------------------------------

g|-----------------------------------------------

d|-----------------------------------------------

a|-----------------------------------------------

e|-3-0-0-3-0-0-3-0-0-5-0-3-0-0-3-0-0-3-0-0-6-5-3-



e|-----------------------------------------------

b|-----------------------------------------------

g|-----------------------------------------------

d|-----------------------------------------------

a|-5-*-*-5-*-*-5-*-*-7-*-5-*-*-5-*-*-5-*-*-8-7-5-

e|-3-0-0-3-0-0-3-0-0-5-0-3-0-0-3-0-0-3-0-0-6-5-3-



e|--------------------------------

b|--------------------------------

g|--------------------------------

d|--------------------------------

a|-2-*-*-5-*-*-7-*-*-8-*-*-7------

e|-0-0-0-3-0-0-5-0-0-6-0-0-5------



e|-------------------------------------------

b|-------------------------------------------

g|-------------------------------------------

d|-------------------*-*---*-*---*-*---*-*---

a|-2-5-7-5-2-2-5-2-5-2-2-5-2-2-5-2-2-5-2-2-7-

e|-0-3-5-3-0-0-3-0-3-0-0-3-0-0-3-0-0-3-0-0-5-



e|------------------

b|------------------

g|------------------

d|-------^--*-*-*---

a|-5-4-2-7--2-2-2---

e|-3-2-0-5--0-0-0---



end

e|------------

b|------------

g|------------

d|------------

a|-5-2---^----

e|-3-0---3----





-----

Little Horn 



Tabbed by Anntie Kryst & Sex Kitten



Main Riff:

E--------------------------------------------------------------------------

B--------------------------------------------------------------------------

G--------------------------------------------------------------------------

D-------------------------------------------------------------------------- 

A--3--0--0--3--0--0--3--0--0--3--0--0--3--0--5--3--0--0--6--5--0

D--3--0--0--3--0--0--3--0--0--3--0--0--3--0--5--3--0--0--6--5--0

(Repeat several times) 

 

Going into the chorus:

E--------------------------------------------------------------------------

B--------------------------------------------------------------------------

G--------------------------------------------------------------------------

D--------------------------------------------------------------------------

A--6--6--6--6--6--6--6--6--6--6--6--6--6--5--3--0------------------ 

D--6--6--6--6--6--6--6--6--6--6--6--6--6--5--3--0------------------

 

Chorus:

E--------------------------------------------------------------------------

B-------------------------------------------------------------------------- 

G-------------------------------------------------------------------------- 

D-------------------------------------------------------------------------- 

A--0--0--0--0--0--6--3--X--5--X--1--3--X--X--3--X--X--3--X--X 

D--0--0--0--0--0--6--3--X--5--X--1--3--X--X--3--X--X--3--X--X 

 

E--------------------------------------------------------------------------

B-------------------------------------------------------------------------- 

G-------------------------------------------------------------------------- 

D--------------------------------------------------------------------------

A--3--X--X--3--X--5--------------------------------------------------- 

D--3--X--X--3--X--5--------------------------------------------------- 

 

Ending riff of the chorus and the song:

E--------------------------------------

B--------------------------------------

G--0----------------------------------

D--0---------------------------------- 

A------------------------------1------ 

D------------------------------1------ 

 

There you go the TAB for Little Horn!
  development and support by
dmitry ivanov