rock
 
|tablatures   |lyrics   |discussion forums   |more tabs @ XGuitar.com

Marilyn Manson tabs

Lamb Of God guitar tab

      MARILYN MANSON ONLINE
     http://manson.rmp3.net/
        
        HOLY WOOD TABS


Tabbed by : julian015@hotmail.com
Artist    : Marilyn Manson
Album     : Holy Wood (In The Shadow Of The Valley Of Death)
Song      : Track #12 - Lamb of God

Tuning: Standard (EADGBE)

Intro :

   Am          G6  Eb6sus4

E|-----0-------0---0----------------
B|-----1-------0---0----------------
G|-----2-------0---3----------------
D|---2-------0-----3----------------
A|-0---------------2---------------
E|---------3-------0---------------

Amin                   G      F
If you die when theres no one watching

Amin                 G            F 
And your ratings drop and your forgotten

Amin               G     F 
If they kill you on their TV

Amin                   G       F
You're a martyr in the Lamb of God

Play the intro over the next verse
("There was Lennon...")

C              G
Nothings gonna change the world

F
Nothings gonna change

Amin           G
Nothings gonna change the world

F
Nothings gonna change the world


*The little lead bit is as follows*

E|--------------------------------------------|
B|------------3----3-5--------------3---------|
G|-2---2-4-5-----5-----2-2---2-4-5----------5-|


  development and support by
dmitry ivanov