rock
 
|tablatures   |lyrics   |discussion forums   |more tabs @ XGuitar.com

Marilyn Manson tabs

Ka-Boom Ka-Boom bass tab

Tuning: BFBE

~ = let note ring
^ = bend
x = mute


Play This Riff 7 Times :

E|---------------------------------
B|---------------------------------
F|-6-5-5-5---5--5-5--6-5-5-5---5-3-
B|---------------------------------

Now play this part 2 times :

E|---------------------------------
B|-12^~----------------------------
F|-------11~----11~-----x----------
B|---------------------------------

Then ,Play this part once :

E|---------------------------------
B|---------------------------------
F|-11~---------------x-------------
B|---------------------------------

Play the follow part 2 times (it's the chorus) :

E|--------------------------------------
B|--------------------------------------
F|--------------------------------------
B|000000000-3333-8888-77777777-77777777-

Then :

E|---------------------------------
B|---------------------------------
F|---------------------------------
B|-77777777------------------------

Continue with the first riff :

E|---------------------------------
B|---------------------------------
F|-6-5-5-5---5--5-5--6-5-5-5---5-3-
B|---------------------------------

and with the second riff :

E|---------------------------------
B|-12^~----------------------------
F|-------11~----11~-----x----------
B|---------------------------------

Then the break 4 times :

E|---------------------------------
B|-5~------------------------------
F|---------------6~----------------
B|---------------------------------

And the song end with the chorus :

E|--------------------------------------
B|--------------------------------------
F|--------------------------------------
B|000000000-3333-8888-77777777-77777777-

=============================================================

Enjoy this great song !!
This is my first tab ,I hope it's correct...

twiggpogo@hotmail.com
http://twiggmanson.fr.st
  development and support by
dmitry ivanov