rock
 
|tablatures   |lyrics   |discussion forums   |more tabs @ XGuitar.com

Marilyn Manson tabs

Irresponsible Hate Anthem guitar tab

Irresponsible Hate Anthem 



Tabbed by Graham Nicholson



-----------------------------------------------------------------------------e

-----------------------------------------------------------------------------b

-----------------------------------------------------------------------------g

-----------------------------------------------------------------------------d

4-4-4-7-7-7-9-9-.-.-.-9-9-9-7-7-4-4-4-7-7-7-9-9-2--2--2--2-------------------a

2-2-2-5-5-5-7-7-8-8-8-7-7-7-5-5-2-2-2-5-5-5-7-7-0--0--0--0-------------------e



just remember that those fancy little dots mean go to the 10th fret. I didn't feel like crowding a whole bunch of numbers together so I did that.



Here's the chords anyway.



F#5 A5 B#5 C5 B#5 A5 F#5 A5 B#5 E5 F5 REPEAT



That's the intro.



Then there's a cool riff where Marilyn sings

"I wasn't born with enough middle fingers"



F#5 C5 B#5 A5 B#5 A5 F#5 C5 B#5 A5 E5 F#5 C5 B#5 A5 B#5 A5 E5 F5



Finally



G---------11-12-11-12-11-12-11-12-11-12-15-12



This part is played in the quiet (!) part of the song.



-----

Irresponsible Hate Anthem 



Tabbed By Never Born

slborn@zoomnet.net



intro

e|----------------------------------------

b|----------------------------------------

g|----------------------------------------

d|----------------------------------------

a|-2-2-2-5-5-5-7-7-8-8-8-7-7-7-5-5-2-2-2--

e|-0-0-0-3-3-3-5-5-6-6-6-5-5-5-3-3-0-0-0--



e|----------------------------------------

b|----------------------------------------

g|----------------------------------------

d|----------------------------------------

a|-5-5-5-7-7-3-3-3-3-3-3-3----------------

e|-3-3-3-5-5-1-1-1-1-1-1-1----------------



e|----------------------------------------

b|----------------------------------------

g|----------------------------------------

d|----------------------------------------

a|-2-2-2-5-5-5-7-7-8-8-8-7-7-7-5-5-2-2-2--

e|-0-0-0-3-3-3-5-5-6-6-6-5-5-5-3-3-0-0-0--



e|----------------------------------------

b|----------------------------------------

g|----------------------------------------

d|----------------------------------------

a|-5-5-5-7-7-2-2-2-2-2-2-2----------------

e|-3-3-3-5-5-0-0-0-0-0-0-0----------------



e|------------------------

b|------------------------

g|-----------------9------

d|-7-8-7-8-7-8-7-8---8----

a|------------------------

e|------------------------



guitar scratch noises when he sings "i hate the hater"

e|----------------------

b|----------------------

g|-8-8-8-8-8------------

d|-7-7-7-7-7------------

a|-5-5-5-5-5------------

e|----------------------



a|--------------------------------------------

b|--------------------------------------------

g|--------------------------------------------

d|--------------------------------------------

a|-2-5-7-8-7-5-2-5-7-8-7-5-2-5-7-8-7-5-2-3-2--

e|-0-3-5-6-5-3-0-3-5-6-5-3-0-3-5-6-5-3-0-1-0--



end

e|------------------

b|------------------

g|------------------

d|------------------

a|-2-2-2-2-2-2-2----

e|-0-0-0-0-0-0-0----



-----

Irresponsible Hate Anthem 



Tabbed by Never Born slborn@zoomnet.net



intro

e|-------------------------------------------

b|-------------------------------------------

g|-------------------------------------------

d|-------------------------------------------

a|-4-4-4-7-7-7-9-9-10-10-10-9-9-9-7-7-4-4-4--

e|-2-2-2-5-5-5-7-7--8--8--8-7-7-7-5-5-2-2-2--



e|----------------------------------------

b|----------------------------------------

g|----------------------------------------

d|----------------------------------------

a|-7-7-7-9-9-2-2-2-2-2-2-2--3--------------

e|-5-5-5-7-7-0-0-0-0-0-0-0--1--------------



e|----------------------------------------

b|----------------------------------------

g|----------------------------------------

d|----------------------------------------

a|-4-4-4-7-7-7-9-9-10-10-10-9-9-9-7-7-----

e|-2-2-2-5-5-5-7-7--8--8--8-7-7-7-5-5-----



e|----------------------------------------

b|----------------------------------------

g|----------------------------------------

d|----------------------------------------

a|-4-4-4-7-7-7-9-9-12-12-12-12-12-12-12---

e|-2-2-2-5-5-5-7-7-10-10-10-10-10-10-10---



e|------------------------

b|------------------------

g|-----------------9------

d|-7-8-7-8-7-8-7-8---8----

a|------------------------

e|------------------------



guitar scratch noises when he sings "i hate the hater"

e|----------------------

b|--8--8--8--8--8-------

g|-10-10-10-10-10-------

d|--9--9--9--9--9-------

a|--7--7--7--7--7-------

e|----------------------



"everybody's somone elses"

a|----------------------------------------------

b|----------------------------------------------

g|----------------------------------------------

d|----------------------------------------------

a|-4-10-9-7-9-7-4-10-9-7-9-7-4-10-9-7-9-7-2-3---

e|-2--8-7-5-7-5-2--8-7-5-7-5-2--8-7-5-7-5-0-1---



end

e|------------------

b|------------------

g|------------------

d|------------------

a|-4-4-4-4-4-4-4----

e|-2-2-2-2-2-2-2----
  development and support by
dmitry ivanov