rock
 
|tablatures   |lyrics   |discussion forums   |more tabs @ XGuitar.com

Marilyn Manson tabs

I Want To Disappear guitar tab

I want to Disappear Marilyn Manson MECHANICAL ANIMALS tabbed by jonden@ix.netcom.com 

riff 1 
E--------------------- 
B--------------------- 
G-------------(all one continueous bend) 
D-------------6666-6-- 
A--------------------- 
Db---000030-0--------- 

bridge(bass only, not sure how many times you strum each note) 
------------------------- 
------------------------- 
------------------------- 
-6-6-6-6-6-3-3-3-3-3----- 

chorus 
---------------------------------------------------------------------------------- 
---------------------------------------------------------------------------------- 
-8-8-8-6-8-11-11-11-8-6-6-8-8-8-6-8-11-11-11-8-6-6-8-8-8-6-8-11-11-11-8-6-6-8-8-6- 
-8-8-8-6-8-11-11-11-8-6-6-8-8-8-6-8-11-11-11-8-6-6-8-8-8-6-8-11-11-11-8-6-6-8-8-6- 
-6-6-6-4-6-9 -9 -9 -6-4-4-6-6-6-4-6-9 -9 -9 -6-4-4-6-6-6-4-6-9 -9 -9 -6-4-4-6-6-4- 
---------------------------------------------------------------------------------- 

------------------------------------------- 
------------------------------------------- 
-9-9-9-9-6-6-6-6-8-8-8-8-4-4-4-4-6-6-6-6-8- 
-9-9-9-9-6-6-6-6-8-8-8-8-4-4-4-4-6-6-6-6-8- 
-7-7-7-7-4-4-4-4-6-6-6-6-2-2-2-2-4-4-4-4-6- 
------------------------------------------- 

after chorus bridge 
------------- 
------------- 
------------- 
-----7b------ 
-------6-466- 
-000---------

  development and support by
dmitry ivanov