rock
 
|tablatures   |lyrics   |discussion forums   |more tabs @ XGuitar.com

Marilyn Manson tabs

I Want To Disappear bass tab

Band: Marilyn Manson
Album: Mechanical Animals
Song: I Want To Disappear
Tuning: Standard

^ = bend
~ = let it ring
/ = slide up

Verse;
G|-------------------
D|-------------------
A|-------------------
E|-0~003000----------


Bridge A;
G|-------------------
D|-------------------
A|-------------------
E|-5~----------------


Bridge B;
G|-------------------
D|-------------------
A|-------------------
E|-2~----/-----------


Chorus;
G|-------------------
D|-------------------
A|-66666666/9~-7-6---
E|------------------- x3

G|--------------------------------------------
D|--------------------------------------------
A|-66666666-44444444--6666-44-3~---4444-33-2~-
E|--------------------------------------------


Post-Chorus;
G|--------------------------------
D|--------------------------------
A|----02-----------------02---5^~-
E|-00------3/7~-------00----------


Ending;
G|----
D|----
A|-66-
E|----


Song Structure:
Verse x4
Bridge A x1
Bridge B x1
Chorus x1
Post-Chorus x2
pause
Verse x3
Bridge A x1
Bridge B x1
Chorus x1
Post-Chorus x2
Bridge A x1
pause
Bridge B x1
Chorus x1
Ending x1
end.
  development and support by
dmitry ivanov