rock
 
|tablatures   |lyrics   |discussion forums   |more tabs @ XGuitar.com

Marilyn Manson tabs

I Dont Like The Drugs But The Drugs Like Me bass tab

Song: I Don't Like the Drugs(But the Drugs Like me)
Written by: Marilyn Manson
Tab by: Nick DiMaria

Standard tuning

Intro
G----------------
D----------------
A----------------
E--2-2--2-2--5-5-

Verse
G-------------------------
D-------------------------
A----2------2----2---0-2--
E--0----0-2----0---0------

Pre-Chorus
G--------------------|------|
D:------------------:|------|
A:------------------:|------|
E----2-2-2-2-0-0-0-0-|--5/--|

Chorus            1.____ 2.___  3._______
G-----------------------|------|---------------
D-----------------------|------|---------------
A-------------------0-2-|--2-0-|--0-2----------
E--2-2--2-2--2-2--------|------|------2-2--5-5-

When the guitars go out and the bass drums keys and vocals go it alone
G----------------------
D----------------------  I'm not completely
A----------------------  sure about this part.
E--3~~~---0-0-0-2-0-3--

Outro
just mix up the chorus and intro

Well you can figure out the timing and what not.

E-mail comments questions, just plain shit to mansonfreakboy@hotmail.com
Get Your Private, Free Email at http://www.hotmail.com
  development and support by
dmitry ivanov