rock
 
|tablatures   |lyrics   |discussion forums   |more tabs @ XGuitar.com

Marilyn Manson tabs

Great Big White World guitar tab

From: suicide(is painless)snowman 

Artist: Marilyn Manson
Album:	Mechanical Animals
Song:	Great Big White World
guitar tab

This is the main guitar track, the one you hear the most and also durring live versions.

   /=slide  ^=bend  

intro:

1|-------------------------------------------------------
2|---------4-------3^^-------------------4-----3---------
3|-5----------------------------3-5---------------5------
4|-------------------------------------------------------
5|-------------------------------------------------------
6|-------------------------------------------------------


little down stepping part:

1|-----------------------------------------------------------------------
2|---4-3-----4-3---4----4-3---4-3---4----4-3----4-3---4---4-3---4-3---4--
3|-5-------5-----5----4-----4-----4----3------3-----3---2-----2-----2----
4|-----------------------------------------------------------------------
5|-----------------------------------------------------------------------
6|-----------------------------------------------------------------------

solo:

1|----------------------------------------8---
2|--------------------------------------------
3|-5-5-/-8-10-10^-8-/-5--5-/-8-10-10^--8------
4|--------------------------------------------
5|--------------------------------------------
6|--------------------------------------------

chorus:

1|------------------------------------------------------------------------------
2|------------------------------------------------------------------------------
3|------------------------------------------------------------------------------
4|-3-3-3-3-3-3-3-3-6-6-6-6-6-6-6-6-10-10-10-10-10-10-10-10-10/8-8-8-8-8-8-8-8-8-
5|-3-3-3-3-3-3-3-3-6-6-6-6-6-6-6-6-10-10-10-10-10-10-10-10-10/8-8-8-8-8-8-8-8-8-
6|-1-1-1-1-1-1-1-1-4-4-4-4-4-4-4-4--8--8--8--8--8--8--8--8--8/6-6-6-6-6-6-6-6-6-

(continued)

1|-------------------------------------
2|-------------------------------------
3|-------------------------------------
4|-8/6-6-6-6-6-6-6-6-6-6/5-5-5-5-5-5-5-
5|-8/6-6-6-6-6-6-6-6-6-6/5-5-5-5-5-5-5-
6|-6/4-4-4-4-4-4-4-4-4-4/3-3-3-3-3-3-3-

just repeat the same parts how the song goes, it's simple.
  development and support by
dmitry ivanov