rock
 
|tablatures   |lyrics   |discussion forums   |more tabs @ XGuitar.com

Marilyn Manson tabs

Godeatgod guitar tab

      MARILYN MANSON ONLINE
     http://manson.rmp3.net/
        
        HOLY WOOD TABS


Tabbed by : julian015@hotmail.com
Artist    : Marilyn Manson
Album     : Holy Wood (In The Shadow Of The Valley Of Death)
Song      : Track #1 - GodEatGod

Tuning: Standard (EADGBE)

Intro : 

E|-1---1---0---0---|-----------------|
B|---3---3---3---3-|-0-2-3-2---2-3-2-|
G|-----------------|---------2-------|
D|-0---0---0---0---|-----------------|

"Chorus" (Bass plays this)

A|-2-2-2-2-4-4-4-4-5-5-5-5-0-0-0-0|
E|--------------------------------|

"Chorus" (Guitar part in the background is something like this)

E|---------|---------|
B|-0-2-2-4-|-3-3-2---|
G|---------|-------2-|

Guitar #2 (This is played loudly over the intro riff the 2nd time)

E|-1---1--0-| - let the 0 ring
B|---3------| 
G|----------|

"Before the bullet....." You can play this and it sounds fine
(Very crunchy/heavy distortion)

B|---------------------------------|
G|-4-4-4-4-6-6-6-6-7-7-7-7-7-7-7-7-|
D|-4-4-4-4-6-6-6-6-7-7-7-7-7-7-7-7-|
A|-2-2-2-2-4-4-4-4-5-5-5-5-5-5-5-5-|

Ending :

D|->-
A|->-      <- just slide your hand on the strings ;) 
E|->-

  development and support by
dmitry ivanov