rock
 
|tablatures   |lyrics   |discussion forums   |more tabs @ XGuitar.com

Marilyn Manson tabs

Fundamentally Loathsome bass tab

Marilyn Manson
Fundamentally Loathsome
Tabbed By: Friğrik S. (man5on@visir.is) 

 

Verse 1
G---------------------------------------------------
D---------------------------------------------------
A---------------------------------------------------
E-5----5----4-3---3-0-3-4-5----5----4-3---3-0-3-4-5-
 
Verse 1 (Continued)
G---------------------------------------------------
D---------------------------------------------------
A---------------------------------------7\----------
E-5----5----4-3---3---3-2---1--0-0-0-0--------------
 
Chorus
G---------------------------------------------------
D---------------------------------------------------
A----------------------------------9----------------
E--3---3---3---3-----/---------7-------7------------
 
Guitar solo part
G---------------------------------------------------
D---------------------------------------------------
A---------------5--------------5-5\-----------------
E-7\--------3------2--2--0--0-----------------------
  development and support by
dmitry ivanov