rock
 
|tablatures   |lyrics   |discussion forums   |more tabs @ XGuitar.com

Marilyn Manson tabs

Doll-Dagga Buzz-Buzz Ziggety-Zag guitar tab

Artist: Marilyn Manson
Song: Doll-Dagga Buzz-Buzz Ziggety-Zag
Album: The Golden Age of Grotesque
Tabbed by: Pier-Philippe de Chevigny Le Blanc


Main riff

E-----------------------------------
B-----------------------------------
G-----------------------------------
D-2-2-22-5-22-5-2-5-5-5-5-5-2------
A-2-2-22-5-22-5-2-5-5-5-5-5-2------
D-2-2-22-5-22-5-2-5-5-5-5-5-2------

Verse
E-------------------------------
B-------------------------------
G-------------------------------
D-2-----2-5-2-----XX2-5-2-------
A-2-----2-5-2-----XX2-5-2-------
D-2-----2-5-2-----XX2-5-2-------

Bridge
E------------------
B------------------
G------------------
D-XXXXXXXXXXXXXX---
A-XXXXXXXXXXXXXX---
D-XXXXXXXXXXXXXX---

D-22-33-44-55--22-33-44-55---
A----------------------------
D----------------------------

Chorus
E------------------------
B------------------------
G-4-3---------4-3--------
D-4-3-5-7-2---4-3-5-7----
A-2-1-5-7-2---2-1-5-7----
D-----5-7-2-------5-7----


Solo
E---------------------------------------------------
B---------------------------------------------------
G---------------------------------------------------
D0/12-12--x-x--/-11-0-0-/-11-0-0-/-11-00-/-11-00----
A---------------------------------------------------
D---------------------------------------------------
(repeat 4x)

E------------------------------------------
B-------12---------------------------------
G---12--15>-----12-------------------------
D-14----------14--12-----------------------
A------------------------------------------
D------------------------------------------
(repeat 2x)

Outro

Guit 1
A------------------------------------------
D-2-8-8-7-7-7-5-5-5-5---5-5-2-5-5-2--------

Guit 2
A------------------------------------------
D-2-2-2-1-1-1-0-0-0-0---5-5-2-5-5-2--------

Check out my other Golden Age of Grotesque tabs at mxtabs.net
  development and support by
dmitry ivanov