rock
 
|tablatures   |lyrics   |discussion forums   |more tabs @ XGuitar.com

Marilyn Manson tabs

Disposable Teens guitar tab

      MARILYN MANSON ONLINE
     http://manson.rmp3.net/
        
        HOLY WOOD TABS


Tabbed by : julian015@hotmail.com
Artist    : Marilyn Manson
Album     : Holy Wood (In The Shadow Of The Valley Of Death)
Song      : Track #4 - Disposable Teens

Tuning: Drop D (DADGBE)

Key :

\ = slide down
x = mute strings
^ = slight/gradual string bend

G|-7-7-5-10^-5/7---5/7-7-5-7-\-x-x-x-|
D|-7-7-5-10^-5/7---5/7-7-5-7-\-x-x-x-|
A|-5-5-3-8-^-3/5---3/5-5-3-5-\-x-x-x-|
D|---------------------------\-x-x-x-|

Verse & first chorus : 

G|-----x-x-x-x-----x-x-x-x-|
D|-0-0-x-x-x-x-0-0-x-x-x-x-|
A|-0-0-x-x-x-x-0-0-x-x-x-x-|
D|-0-0-x-x-x-x-0-0-x-x-x-x-|

G|-----x-x-x-x-----x-x---------|
D|-0-0-x-x-x-x-0-0-x-x-0-3-0-3-3-|
A|-0-0-x-x-x-x-0-0-x-x-0-3-0-3-3-|
D|-0-0-x-x-x-x-0-0-x-x-0-3-0-3-3-|

Bridge : ("The more that you fear us..")

G|-5-|
D|-5-| over and over again, but at the very end :
A|-3-| 

G|-5-6-|
D|-5-6-|
A|-3-4-|



  development and support by
dmitry ivanov