rock
 
|tablatures   |lyrics   |discussion forums   |more tabs @ XGuitar.com

Marilyn Manson tabs

Disassociative guitar tab

DISASSOSIATIVE - marilyn manson MECHANICAL ANIMAL5 - tabbed by jonden@ix.netcom.com

intro (with tremolo) 
E-------------------------------------------------------- 
B-------5----------------------------------------------- 
G---------6-------------------------8------------------- 
D----------------12--10----------9---------10-9-7-7-- 
A----7---------12----10-------9---------10----9-7-7-- 
E--5---------10------- 8----7----------8-------7-5-5-- 

the nervous systems down 1 
------------------------------------------------ 
------------------------------------------------ 
------------------------------------------------ 
-5-5-5-5-5-3-3-3-3-3-1-1-1-1-1-1-1-1-1-1- 
-5-5-5-5-5-3-3-3-3-3-1-1-1-1-1-1-1-1-1-1- 
-7-7-7-7-7-5-5-5-5-5-3-3-3-3-3-3-3-3-3-3- 

chorus 
------------------------------------------------- 
------------------------------------------------- 
------------------------------------------------- 
-10-10-10-10-10-10-10-10-7-7-7-7-7-7-7-7- 
-10-10-10-10-10-10-10-10-7-7-7-7-7-7-7-7- 
--8---8--8--8---8--8--8--8--5-5-5-5-5-5-5-5- 

nervous systems down 2 
-------------------------------------------------------------------------------------- 
-------------------------------------------------------------------------------------- 
-------------------------------------------------------------------------------------- 
-9-9-9-9-9-9-9-9-14-14-14-14-14-14-14-14-7-7-7-7-7-7-7-7-3-3-3-3-3-3-3-3- 
-9-9-9-9-9-9-9-9-14-14-14-14-14-14-14-14-7-7-7-7-7-7-7-7-3-3-3-3-3-3-3-3- 
-7-7-7-7-7-7-7-7-12-12-12-12-12-12-12-12-5-5-5-5-5-5-5-5-1-1-1-1-1-1-1-1-

  development and support by
dmitry ivanov