rock
 
|tablatures   |lyrics   |discussion forums   |more tabs @ XGuitar.com

Marilyn Manson tabs

Cyclops guitar tab

Cyclops 

Tabbed by Daisy Bobbit

Note: Cyclops woman uses numerous hammer-ons and pull-offs
throughout the entire song. For the solo you will need to use a
wah-wah pedal to create thesound of the guitar in this section.
The second solo section in this pieceis fast and pretty
difficult, take it slow then work the solo up to speed. I used
the lyrics to give you placement of the chords within the song.
Enjoy the candy.

Guitar Notation:

+1/2 =bend up a half step
   X =muted strings
  /s =slide up the fretboard      
  \s =slide down the fretboard
  ^h =hammer-on
  ^p =pull-off
  1o =fret 10

Intro

**Riff A**

e|---------5---------5-------5---|
B|---------5---------5-------5---|
G|---------6---------6-------6---|
D|-7-7-7-7-----7-7-7-----7-7-----|
A|-7-7-7-7-----7-7-7-----7-7-----|
E|-5-5-5-5-----5-5-5-----5-5-----|

play **Riff A** 2 more times on the 4th time through use Intro 

**RiffB**

e|---------4---------4-------4---|
B|---------4---------4-------4---|
G|---------5---------5-------5---|
D|-6-6-6-6-----6-6-6-----6-6-----|
A|-6-6-6-6-----6-6-6-----6-6-----|
E|-4-4-4-4-----4-4-4-----4-4-----|

Verse 1 (Part 1)  **Riff C**

"Cyclops  woman  got one  eye in her head"
e|---------------------------------------------5---|
B|---------------------------------------------5---|
G|---------------------------------------------6---|
D|-2--2--2--2--3--2---------2--2--2--2--3--2-------|
A|-2--2--2--2--3--2---------2--2--2--2--3--2-------|
E|-0--0--0--0--1--0---------0--0--0--0--1--0-------|

Verse 1 (Part 2)  **Riff D**

"Mascera-clotted vision she is fed"
e|---------------------------------------------------|
B|---------------------------------------------------|
G|---------------------------------------------3+1/2-|
D|-2--2--2--2--3--2---------2--2--2--2--3--2---3+1/2-|
A|-2--2--2--2--3--2---------2--2--2--2--3--2---------|
E|-0--0--0--0--1--0---------0--0--0--0--1--0---------|

Verse 1 (Part 3)  **Riff E**

"Cyclops woman can't see nothing at all"
e|--------------------------------------------3^h4^p3-|
B|--------------------------------------------3^h4^p3-|
G|----------------------------------------------------|
D|-2--2--2--2--3--2---------2--2--2--2--3--2----------|
A|-2--2--2--2--3--2---------2--2--2--2--3--2----------|
E|-0--0--0--0--1--0---------0--0--0--0--1--0----------|

for "She got a pin-prick-spiral hole" use **Riff C** again play
**Riff A** 4 times while Manson sings "She can't see nothing,
nothing at all. She can't see nothing, nothing at all." to
complete the chorus

Pre-Verse 2 **Riff F**

e|-----------------------------------------------------|
B|-----------------------------------------------------|
G|-----------------------------------------------------|
D|-2--2--2--2--3--2---------2--2--2--2--3--2--3^h4^p3--|
A|-2--2--2--2--3--2---------2--2--2--2--3--2-----------|
E|-0--0--0--0--1--0---------0--0--0--0--1--0-----------|

play **Riff C** then **Riff D** then **Riff E** then **Riff C**
while Manson sings the lines "Cyclops woman dying in her shell.
Guilt got her trapped in nailed in well. Cyclops woman is the
eye of the world. Who's reflection's in the retina?"

to complete Verse 2 play **Riff A** 8 times while Manson sings
"She can't see nothing, nothing at all...."

to complete the chorus play **Riff C** then **Riff D** hold the
bends at the end of **Riff D**until Manson screams "Yeah!"

Solo 1 **Riff G** (With Wah-Wah pedal)

e|---------------------------------|
B|---------------------------------|
G|-7--8----7--9----7--8----7-------|
D|---------------------------8-7-6-|
A|---------------------------------|
E|---------------------------------|

(Solo 1 is used in live concerts that's why I transcribed it here)

play **Riff G** 2 more times
play **Riff A** 3 times on the 4th time play **Riff B**

Solo 2 (Part 1)  **Riff H** (With Wah-Wah pedal)

e|-----------------------------------------------------------|
B|-13+1/2--11-11-11------------13+1/2--11-11-11--------------|
G|-------------------14-13+1/2-------------------14-16-15-14-|
D|-----------------------------------------------------------|
A|-----------------------------------------------------------|
E|-----------------------------------------------------------|

Solo 2 (Part 2)  **Riff I** (With Wah-Wah pedal)
(first part picked very quickly marked with "$" (Beginning & End))

e|--------------------------------------------------------------|
B|---$------------------------------------$---------------------|
G|-/s888-999-1o1o1o-999-----------------------------------------|
D|---------------------/s888-999-1o1o1o-999-/s5--/s8------------|
A|----------------------------------------------------15-14-13--|
E|--------------------------------------------------------------|

Solo 2 (Part 3)  **Riff J** (With Wah-Wah pedal)

e|---------------------------------|
B|-5---5----------5---5----11+1/2--|
G|---6---6-5+1/2----6---6----------|
D|---------------------------------|
A|---------------------------------|
E|---------------------------------|

Solo 2 (Part 4)  **Riff K** (With Wah-Wah pedal)

e|-----------------------------------------12^h13^p12^h13^p12-12-12-13-12-15|
B|---------------------12^h13^p12^h13^p12-----------------------------------|
G|-12^h13^p12^h13^p12-------------------------------------------------------|
D|--------------------------------------------------------------------------|
A|--------------------------------------------------------------------------|
E|--------------------------------------------------------------------------|

play **Riff C** then **Riff D** while Manson screams "Dilated"
hold the bends at the end of **Riff D** until snare drum is hit
4 times

Ending **Riff L**
e|--------------------------------------------------------------------------|
B|--------------------------------------------------------------------------|
G|--------------------------------------------------------------------------|
D|-5-5-5-5-7-7-7-7-9-9-9-9-1o-1o-1o-1o-12-12-12-12-14\s---2--2--2--2--3--2--|
A|-5-5-5-5-7-7-7-7-9-9-9-9-1o-1o-1o-1o-12-12-12-12-14\s---2--2--2--2--3--2--|
E|-3-3-3-3-5-5-5-5-7-7-7-7--8--8--8--8-1o-1o-1o-1o-12\s---0--0--0--0--1--0--|

Simple... well that's it practice makes perfect...
  development and support by
dmitry ivanov