rock
 
|tablatures   |lyrics   |discussion forums   |more tabs @ XGuitar.com

Marilyn Manson tabs

Cruci-Fiction In Space guitar tab

      MARILYN MANSON ONLINE
     http://manson.rmp3.net/
        
        HOLY WOOD TABS


Tabbed by : julian015@hotmail.com
Artist    : Marilyn Manson
Album     : Holy Wood (In The Shadow Of The Valley Of Death)
Song      : Track #8 - Cruci-fiction in space 

Key : 

pm.. = palm mute notes with a . underneath

Tuning: (from low to high) C#,F#,B,E,G#,C#

Distorted intro : (repeat this approximately 8,592 times)

C#|-----------------|
G#|-----------------|
 E|-----------------|
 B|-2-2-2-2-2-2-2-2-|
F#|-2-2-2-2-2-2-2-2-|
C#|-0-0-0-0-0-0-0-0-|
pm  . . . . . . . .

Chorus : ("This is evolution...")

C#|-----------------------|
G#|-----------------------|
 E|-9---7-9-7-------------|
 B|-9---7-9-7-5-----7---5-|
F#|-7---5-7-5-5-----7---5-|
C#|-----------3-----5---3-|

Bridge #1 : ("We are dead....")

C#|-----------------|
G#|-----------------|
 E|-9---7-9-7-5---7-|
 B|-9---7-9-7-5---7-|
F#|-7---5-7-5-3---5-|
C#|-----------------|

Interlude #2 : ("In our space...")

C#|----------------------|
G#|----------------------|
 E|-15-14-12-9-{-7-9-7-}-| { notes in these brackets
 B|-15-14-12-9-{-7-9-7-}-|   are not always played
F#|-13-12-10-7-{-5-7-5-}-| }
C#|----------------------|

Outro : ("This is evolution...")

 E|-----------------|
 B|-2-2-2-2-2-2-2-2-|
F#|-2-2-2-2-2-2-2-2-|
C#|-0-0-0-0-0-0-0-0-|
pm  . . . . . . . .

Outro Synth (for guitar) :

C#|---------------------------------|
G#|-11-10---11-10-8---11-10--11-----|
 E|-----------------------------7-9-|
 B|---------------------------------|


  development and support by
dmitry ivanov