rock
 
|tablatures   |lyrics   |discussion forums   |more tabs @ XGuitar.com

Marilyn Manson tabs

Cruci-Fiction In Space bass tab

Name:Marilyn Manson
Song:Cruci-Fiction In Space
Album:Holy Wood (In The Shadow Of The Valley Of Death)

Intro (verse/outro): (x16)
|--------------------|
|--------------------|
|--------------------|
|9---9---9---9---|

Verse (x16)

Chorus: (x4)(1:16)
|----------------------|------------------|
|----------------------|------------------|
|----------------------|------------------|
|9-9-9-7-9-0--*-|*-*-*-*-9---7------------|

Bridge 1: (1:36)
|-------------------|------------------|-------------------|------------------|
|-------------------|------------------|-------------------|------------------|
|-------------------|------------------|-------------------|------------------|
|9-*-*-9/15-*-*-*-|*-*-*-*-14---12\9---|9-*-*-9/15-*-*-*-|*-*-*-*-14---12-0---|

Verse (x8)
Chorus (x4)

Bridge 2: (x4)(2:24)
|-------------2*-*-*-*-------|----------------|
|----------------------------|----------------|
|-4-4-4-4-4------------------|----------------|
|----------------------------|----------------|

Interlude: (x8)(2:43)
|--------------------------|---------------------|
|--5-*-*4-*-*-2\----------------|---------------------|
|----------------4-4-2-2-4-2-4-|---------------------|
|--------------------------|---------------------|

Outro (x24)
Rest till end
  development and support by
dmitry ivanov