rock
 
|tablatures   |lyrics   |discussion forums   |more tabs @ XGuitar.com

Marilyn Manson tabs

Count To 6 And Die guitar tab

      MARILYN MANSON ONLINE
     http://manson.rmp3.net/
        
        HOLY WOOD TABS


Tabbed by : julian015@hotmail.com
Artist    : Marilyn Manson
Album     : Holy Wood (In The Shadow Of The Valley Of Death)
Song      : Track #19 - Count To Six And Die (The vacuum of infinite space encompassing)

Piano transcribed for guitar

Tuning : Standard (EADGBE)


If you don't think this sounds right.... then the odds are that your
guitar is highly out of tune. Tune it before complaining ;)


Intro & first verse ("Shes got her eyes open wide...")

G|-----------------|
D|-2-2-2-2-2-2-2-2-|
A|-----------------|
E|-0-0-0-0-0-0-0-0-|

Verse 2 ("I've got an angel in the lobby...")

B|---------------------------------------------------|
G|-9-12-11-------9-12-11------9-12-11----------------|
D|---------9-------------8---------------------------|
A|------------------------------------12--7-7-10-9-7-|

Ending : (repeat this)

E|------------------------|
B|---------10-12----10----|
G|-9-11-12-------12----11-|
D|------------------------|

End on an E note. (G|-9-|)

This isn't exact... it was done in about 5 minutes after listening to the piano
parts twice. 


  development and support by
dmitry ivanov