rock
 
|tablatures   |lyrics   |discussion forums   |more tabs @ XGuitar.com

Marilyn Manson tabs

Count To 6 And Die bass tab

This is the bass version of the piano in the song.  Otherwords,
there isn't any bass in this song.

Intro
G||------------------|------------------||
D||------------------|------2---------2-||
A||------------------|------------------||
E||-0----0----0----0-|-0---------0------||

Main Riff
G||--0-4--------0-3--------0-2---------0---------||
D||-2-4--------2-4--------2-4--------44-42-------||
A||----------------------------------------------||
E||------0-0-0------0-0-0------0-0-0-------0-0-0-||

Outro
G||---02402--|---020-0---||
D||-24-----4-|-24---4-42-||
A||----------|-----------||
E||----------|-----------||

I'm a wied bassist - I like learning how to play something on piano,
then figuring it out on bass or vica versa.

Contact me at vankwishedsingr1@aol.com
  development and support by
dmitry ivanov