rock
 
|tablatures   |lyrics   |discussion forums   |more tabs @ XGuitar.com

Marilyn Manson tabs

Come Together guitar tab

From: Bruce Armstrong  
Artist:	Marilyn Manson
Album:	Unreleased 
Song:	Come Together

Guitar tab

Manson only covered a bit of this beatles song and it used to be played at the beginning of "My Monkey".

h = Hold

Intro:
e|------------------------------------------|
B|------------------------------------------|
G|-----------------------------------10-----|
D|-0-0----------10h--0-0----------10----12h-|
A|------10-12h------------10-12h------------|
E|------------------------------------------|

Verse:
e|-------------------------|
B|-------------------------|
G|-12-12--12-12---12-12----|
D|-12-12--12-12---12-12----|
A|-10-10--10-10---10-10----|
E|-------------------------|
(Play 4x)

Verse Pt 2.:
e|----------------|
B|----------------|
G|----------------|
D|-7-7--7-7---5-5-|
A|-7-7--7-7---5-5-|
E|-5-5--5-5---3-3-|
(Play 1x)
(Pause after A chord)

Well that's it told u Manson only covered a little bit of it!

  development and support by
dmitry ivanov