rock
 
|tablatures   |lyrics   |discussion forums   |more tabs @ XGuitar.com

Marilyn Manson tabs

Coma White guitar tab

Coma White - marilyn manson - MECHANICAL ANIMAL5 
tabbed by jonden@ix.netcom.com and charlie 

for the main verse play part1 3 times then part2 

part 1 
E------------------------------------------- 
B-------0------0------0------0------1----1-- 
G---2------2------2------2------2----------- 
D------------------------------------------- 
A------------------------------------------- 
E------------------------------------------- 

part 2
-------------------------------------------------------- 
-------------------------------------------------------- 
--5/7------7------7------7------5------5------4------4-- 
-------------------------------------------------------- 
-------------------------------------------------------- 
-------------------------------------------------------- 

part 3 
--------------------------------------------------------------------------- 
--------------------------------------------------------------------------- 
--------------------------------------------------------------------------- 
-7-7-7-7-7-7-7-7-10-10-10-10-10-10-10-10-5-5-5-5-5-5-5-5-5\3-3-3-3-3-3-3-3- 
-7-7-7-7-7-7-7-7-10-10-10-10-10-10-10-10-5-5-5-5-5-5-5-5-5\3-3-3-3-3-3-3-3- 
-5-5-5-5-5-5-5-5-8 -8 -8 -8 -8 -8 -8 -8 -3-3-3-3-3-3-3-3-3\1-1-1-1-1-1-1-1- 

part 4 
------------------------------------------------------------------ 
------------------------------------------------------------------ 
------------------------------------------------------------------ 
-7-7-7-7-10-12-X-6-6-6-6-10-12-X-7-7-7-7-12-10-X-3-3-3-3-3-3-3-3-- 
-7-7-7-7-10-12-X-6-6-6-6-10-12-X-7-7-7-7-12-10-X-3-3-3-3-3-3-3-3-- 
-5-5-5-5-8 -10-X-4-4-4-4-8 -10-X-5-5-5-5-10-8 -X-1-1-1-1-1-1-1-1-- 

RIFF 1 -NEAR THE END(~ IS BEND UP THEN BACK DOWN) 
--------------- 
--------------- 
--------------- 
-7-7-7-7-7-9~-- 
--------------- 
--------------- 

RIFF 2 -END RIFF 
-------- 
-------- 
-------- 
-9~-7-5- 
-------- 
-------- 
  development and support by
dmitry ivanov