rock
 
|tablatures   |lyrics   |discussion forums   |more tabs @ XGuitar.com

Marilyn Manson tabs

Coma Black guitar tab

      MARILYN MANSON ONLINE
     http://manson.rmp3.net/
        
        HOLY WOOD TABS


Tabbed by : julian015@hotmail.com
Artist    : Marilyn Manson
Album     : Holy Wood (In The Shadow Of The Valley Of Death)
Song      : Track #15 - Coma Black

Tuning: Standard (EADGBE)

Key :

~   = vibrato
(x) = harmonic on fret x

a) Eden Eye

Intro :

E|-3-----3-----3---3-----3-----3---3-----3-----3---3-----3-----5----|
B|---5-----5-----5---5-----5-----5---5-----5-----5---5-----5-----5--|
G|-----4-----4---------4-----4---------4-----4---------4-----4------|
D|------------------------------------------------------------------|

(After repeating the intro once, this is strummed in the background)
(Each note strum 8 times)

B|----------------|
G|-9---12---7---5-|
D|-9---12---7---5-|
A|-7---10---5---3-|
E|----------------|

Bridge : ("Burn all the good things...")


This is not correct, I can't quite figure this out because it's
very hard to hear which notes are being played....sorry.


B|-1-----1-----1---|
G|---4-----4-----4-| (repeat like the intro)
D|-----2-----2-----|
A|-----------------|

Play this over the second "We were to dumb to run, to dead to die"

B|---------------------------------|
G|-7-7-7-7-7-7-7-7-5-5-5-5-5-5-5-5-|
D|-7-7-7-7-7-7-7-7-5-5-5-5-5-5-5-5-|
A|-5-5-5-5-5-5-5-5-3-3-3-3-3-3-3-3-|


Chorus : (Play each note 8 times)

B|---------------|
G|---------7---5-|
D|-2---5---7---5-|
A|-2---5---5---3-|
E|-0---3---------|

Verse #2 : ("I would have told her...")

B|-0-----0-----0---|
G|---3-----3-----3-| (repeat like the intro & bridge)
D|-----------------|

b) Apple of discord

("Her heart's a bloodstained egg
We didn't handle with care
It's broken and bleeding")
E|-----------------------|
B|-5-7-7-7-7-7-8---(7)~~-|
G|-----------------------|

("And we can never repair.")
E|---------------|
B|-5-7-7-7-7-7-5-|
G|---------------|


  development and support by
dmitry ivanov