rock
 
|tablatures   |lyrics   |discussion forums   |more tabs @ XGuitar.com

Marilyn Manson tabs

Coma Black bass tab

Coma Black - Marilyn Manson
Jon Craven (nojnevarc@hotmail.com)
A)Eden Eye (enters @ 1:01)

Riff 1: (x4)
G:------------|------------|------------|------------|
D:------------|------------|------------|------------|
A:-0--0--0--0-|-0--0--0--0-|-5--5--5--5-|-3--3--3--3-|
E:------------|------------|------------|------------|

Riff 2:
G:------------|------------|------------|------------|
D:------------|------------|------------|------------|
A:-5--5--5--5-|-5--5--5--5-|-3--3--3--3-|-3--3--3--3-|
E:------------|------------|------------|------------|

Riff 3: (x2)
G:------------|------------|------------|------------|--------------|------------|------------|
D:------------|------------|------------|------------|--------------|------------|------------|
A:------------|------------|------------|------------|-0/5--5--5--5-|-5--5--5--5-|-3--3--3--3-|
E:-0--0--0--0-|-0--0--0--0-|-3--3--3--3-|-3--3--3--3-|--------------|------------|------------|

G:------------|
D:------------|
A:-3--3--3--3-|
E:------------|

Pause for 24 measures
Riff 3 (x2)
Riff 1 (x5)
Riff 2
Riff 3 (x4)
Pause till 4:26

B)The Apple of Discord (begins @ 4:26)
(enters @ 5:17)

Riff 4:
G:-----------|------------|-----------|------------|-----------|------------|-----------|------------|
D:-----------|------------|-----------|------------|-----------|------------|-----------|------------|
A:---------7-|-R--R--R--R-|---------7-|-R--5--7***-|---------7-|-R--R--R--R-|---------7-|-R--5--7***-|
E:-0*****----|------------|-0*****----|------------|-0*****----|------------|-0*****----|------------|

G:-----------|------------|-----------|------------|----------|-----------|------------|----------|
D:-----------|------------|-----------|------------|----------|-----------|------------|----------|
A:---------7-|-R--R--R--R-|---------7-|-R--5--7***-|-3*******-|-----------|-------5--7-|-3*******-|
E:-0*****----|------------|-0*****----|------------|----------|-3*****-0*-|-****-------|----------|

G:-----------|----------|----------|----------|----------|----------|
D:-----------|----------|----------|----------|----------|----------|
A:-----------|----------|----------|----------|----------|----------|
E:-3*****-0*-|-********-|-********-|-********-|-********-|-********-|

Break till end
  development and support by
dmitry ivanov