rock
 
|tablatures   |lyrics   |discussion forums   |more tabs @ XGuitar.com

Marilyn Manson tabs

Cake And Sodomy bass tab

Here is Cake and Sodomy by Marilyn Manson
 Cake and Sodomy                                                                              
 by Marilyn Manson
 tabbed by: Fred  freddy@soonet.ca

G-|---------------------------|---------|-------------------------------------|
D-|---------------------------|---------|-------------------------------------|
A-|-7-6-5-7-5-5-7-5-5-5-7-6-5-|---------|---------6---6-------------------5-5-|
E-|---------------------------|--7-7-\--|-7-7-\-4---4----5-5-5-0--3-3-3-3-----|
       Intro                                   Verse                                     
                                                                               
G-|---------------------------------------------|
D-|---------------------------------------------|
A-|--------------------6~------------------5-5--|
E-|--7-7--x-x-x-x--4-4----0-3-3-0--0-3-3-3------|
    Chorus                                                                           
                                                                               
I just slipped down these damn stairs......
This has been a message brought to you by AKA Ffreddy
Canada Rules, and we were always on top
  development and support by
dmitry ivanov