rock
 
|tablatures   |lyrics   |discussion forums   |more tabs @ XGuitar.com

Marilyn Manson tabs

Burning Flag guitar tab

      MARILYN MANSON ONLINE
     http://manson.rmp3.net/
        
        HOLY WOOD TABS


Tabbed by : julian015@hotmail.com
Artist    : Marilyn Manson
Album     : Holy Wood (In The Shadow Of The Valley Of Death)
Song      : Track #14 - Burning Flag

~You're on your own with the timing for this one!~

Tuning: Drop D (DADGBE)

Key

x = muted strings
/ = slide

Intro :

G|-------|
D|-0-6-0-|
A|-0-6-0-|
D|-0-6-0-|

G|-x-x-x-x---------------------|
D|-x-x-x-x-(repeat-------0-6-0-|
A|-x-x-x-x---------lots)-0-6-0-|
D|-x-x-x-x---------------0-6-0-|

Pre-verse : (no lyrics)

G|---------------------------------------------------|
D|-3-0-x-x-x-x-3-0-x-x-x-x-3-0-x-x-x-x-x-x-x-x-0-6-0-|
A|-3-0-x-x-x-x-3-0-x-x-x-x-3-0-x-x-x-x-x-x-x-x-0-6-0-|
D|-3-0-x-x-x-x-3-0-x-x-x-x-3-0-x-x-x-x-x-x-x-x-0-6-0-|

Verse ("They wanna sell it out...") = same as the intro

Bridge ("Multiply your death...") 

G|-----------------------|
D|-6-6-6-x-x-x-x-x-x-x-x-|
A|-6-6-6-x-x-x-x-x-x-x-x-|
D|-6-6-6-x-x-x-x-x-x-x-x-|

Bridge #2 ("F-U-C-K") = same as the pre-verse

Chorus ("We are all just stars and we're waiting...")

B|------------|-------|---------------|------|
G|-7-7-7-5/8-8|-------|-7-7-7---------|------| 
D|-7-7-7-5/8-8|3 times|-7-7-7---3-3-3-|1 time|
A|-5-5-5-3/6-6|-------|-5-5-5---3-3-3-|------|
D|------------|-------|---------3-3-3-|------|


  development and support by
dmitry ivanov