rock
 
|tablatures   |lyrics   |discussion forums   |more tabs @ XGuitar.com

Marilyn Manson tabs

Born Again guitar tab

      MARILYN MANSON ONLINE
     http://manson.rmp3.net/
        
        HOLY WOOD TABS


Tabbed by : julian015@hotmail.com
Artist    : Marilyn Manson
Album     : Holy Wood (In The Shadow Of The Valley Of Death)
Song      : Track #13 - Born Again 

Tuning: Drop D (DADGBE)

Intro : (I don't know whether this is a synth or a guitar - 
but either way, here it is :)

Key :

* = The E5 chord is played as normal, but an Octave pedal is activated
to lower the tone of the chord. I might post an audio sample of this
if enough people say "huh??". 

xbyrx = Bend note (x) to note (y) then release back to note (x)

B|----------------------------|
G|-------------------12b13r12-|
D|-2*-----5b6r5-(or)-12b13r12-|
A|-2*-----5b6r5-(or)-10b11r10-|
E|-0*-----3b4r3-(or)----------|
   
Bridge ("I'll put down your disco...")

B|-----------------------------------------------|
G|-9---12---14---12---9---12---14---14---12---11-|
D|-9---12---14---12---9---12---14---14---12---11-|
A|-7---10---12---10---7---10---12---12---10---9--|
E|-----------------------------------------------|

Chorus ("I'm someone else, I'm someone new...")

B|-------------------------------------|
G|-9---9---5---4---9---9---5---2-------|
D|-9---9---5---4---9---9---5---2---7-5-|
A|-7---7---3---2---7---7---3---4---7-5-|
E|---------------------------------5-3-|




  development and support by
dmitry ivanov