rock
 
|tablatures   |lyrics   |discussion forums   |more tabs @ XGuitar.com

Marilyn Manson tabs

Better of Two Evils guitar tab

Better Of Two Evils
Marilyn Manson
The golden age of grotesque
Tabber: crazytom
deathtone@wanadoo.fr

drop D

Main Riff :
---------------------------------------------------------
---------------------------------------------------------
---------------------------------------------------------
---2-4-4--2-4-4--2-4-4--2-4-5---2-4-4--2-4-4--2-4-5--2---
---2-4-4--2-4-4--2-4-4--2-4-5---2-4-4--2-4-4--2-4-5--2---
---2-4-4--2-4-4--2-4-4--2-4-5---2-4-4--2-4-4--2-4-5--2---

Other riff :
-----------------------------
-----------------------------
-----------------------------
---5-4--4h5-4---5-4--4h5-4---
---5-4--4h5-4---5-4--4h5-4---
---5-4--4h5-4---5-4--4h5-4---

Bridge:
--------------------------
-------------------------
-----5-5---5---5-5---5---
---5-5-5-5-5-5-5-5-5-5---
---5-3-3-5-3-5-3-3-5-3---
---5-----5---5-----5-----
  development and support by
dmitry ivanov