rock
 
|tablatures   |lyrics   |discussion forums   |more tabs @ XGuitar.com

Marilyn Manson tabs

Astonishing Panorama Of The Endtimes bass tab

"Astonishing Panorama Of The Endtimes"
Marilyn Manson
>From "The Last Tour On Earth
Tabbed by Damian
e-mail:damian.pamminger@thedoghousemail.com

Main riff:(intro/verse/guitar solo)
G:----------|
D:----------|
A:---1--2---|
E:-1------1-|

Chorus:
G:----------------------------------------------
D:----------------------------------------------
A:-------2--1----------2--1---------2--1--------
E:-1--1--------1--1-1-------1--1-1-------1--1-1-

G:----------|
D:----------|
A:---1--2---|
E:-1------1-|

"Kill your god.."
G:------------------|
D:------------------|
A:-------------1--2-|
E:-1----------------|

there's no bass at "this is what you should.."
part.
It's just drums,guitar,bass synth/noises.


Whaat!!! Have you tried The Doghouse??! Get your FREE WEB-BASED EMAIL account at: 

http://doghousemail.lycos.com
  development and support by
dmitry ivanov