rock
 
|tablatures   |lyrics   |discussion forums   |more tabs @ XGuitar.com

Marilyn Manson tabs

Antichrist Superstar bass tab

From: Bruce Armstrong 
Artist:	Marilyn Manson
Album:	Antichrist Superstar
Song:	Antichrist Superstar

bass tab

Intro/Fill:
G|----------------------------------------|
D|----------------------------------------|
A|----------------------------------------|
E|-7-7--7-7--7-7--7-7--7-7--7-7--7-7--7-7-|

Fill:
G|--------------------------------------------------------------|
D|--------------------------------------------------------------|
A|-----5-------------5-------------5-------------5----8--7--5---|
E|-7-7---7---5---7-7---7---5---7-7---7---5---7-7---7------------|

Verse/Bridge:
G|---------|
D|---------|
A|-----5---|
E|-7-7---7-|

Chorus:
G|---------------------------|
D|-0-------------------------|
A|----4--3------5--------5---|
E|----------7-7---7--7-7---7-|
(x4)
Then...
G|-------------------|
D|-------------------|
A|------5----8--7--5-|
E|--7-7---7----------|
(x4)

Pretty Easy Song...Just work how many times to play each part and where.

"When you are suffering, know that i have betrayed you."
  development and support by
dmitry ivanov