rock
 
|tablatures   |lyrics   |discussion forums   |more tabs @ XGuitar.com

Marilyn Manson tabs

A Rose And A Baby Ruth guitar tab

From: suicide(is painless)snowman 
Artist:	Marilyn Manson
Album:	supposibly on Last Tour on Earth
Song:	A Rose and a Baby Ruth

this is a good song. but these tabs/chords are the closest i could get to this song and how it sounds. when you play along with it, the chords sound good and almost the same. this is the best i could do. besides, i dont see anyother damn sites having this song tabbed.

"doo doo doooo doo"
 riff 1
1|---------2-2-2-2--|
2|-2-2-2-2-1-1-1-1--|
3|-2-2-2-2-2-2-2-2--|
4|-2-2-2-2-0-0-0-0--|
5|-0-0-0-0----------|
6|------------------|
play riff 1 a couple of times, about 4 times
 
riff2  "as blue as I know how to be"
1|---------------------------------
2|-2-2-2-2-3-3-3-3---------2-2-2-2-
3|-2-2-2-2-1-1-1-1-2-2-2-2-0-0-0-0-
4|-2-2-2-2-2-2-2-2-2-2-2-2-2-2-2-2-
5|-0-0-0-0---------0-0-0-0-0-0-0-0-
6|---------------------------------

riff 3
 "i cant call you...."                                   "...home"
1|-2-2-2-2-1-1-1----------2-2-2-2--2-2-2-2-2-2-2-2--4-4-4-4-4-4-4-4-4--
2|-2-2-2-2-1-1-1--2-2-2-2-1-1-1-1--4-4-4-4-4-4-4-4--3-3-3-3-3-3-3-3-3--
3|-3-3-3-3-2-2-2--2-2-2-2-2-2-2-2--4-4-4-4-4-4-4-4--4-4-4-4-4-4-4-4-4--
4|----------------2-2-2-2-0-0-0-0-------------------0-0-0-0-0-0-0-0-0--
5|----------------0-0-0-0----------------------------------------------
6|---------------------------------------------------------------------

play riff 1 two times, then back to riff 2 on "telling the truth"

riff 3.5
                                   "rose and a baby.."
1|-2-2-2-2-1-1-1----------2-2-2-2--2-2-2-2--4-4-4-4-
2|-2-2-2-2-1-1-1--2-2-2-2-1-1-1-1--4-4-4-4--3-3-3-3-
3|-3-3-3-3-2-2-2--2-2-2-2-2-2-2-2--4-4-4-4--4-4-4-4-
4|----------------2-2-2-2-0-0-0-0-----------0-0-0-0-
5|----------------0-0-0-0---------------------------
6|--------------------------------------------------

riff 4
 "ruth"
1|-----------------
2|-2-2-2-2-2-2-2-2-
3|-2-2-2-2-2-2-2-2-
4|-2-2-2-2-2-2-2-2-
5|-0-0-0-0-0-0-0-0-
6|-----------------

play riff 1 3 times, then go to

riff 2.5
"aaaaaaahhhhhhhhhh"
1|------------------
2|----------2-2-2-2-
3|-2-2-2-2--0-0-0-0-
4|-2-2-2-2--2-2-2-2-
5|-0-0-0-0--0-0-0-0-
6|------------------

play riff 3
riff 1 twicw
riff 2 
play riff 3.5 then
riff 4
play riff 1 three times

exit riff
1|-----------5-------
2|-2----5----5-------
3|-2----4------------
4|-2-----------------
5|-0-----------------
6|-------------------
  development and support by
dmitry ivanov