rock
 
|tablatures   |lyrics   |discussion forums   |more tabs @ XGuitar.com

Manowar tabs

Wheels Of Fire guitar tab

ManowaR: Wheels of Fire(Kings of Metal)
Transcribed by HeXa(Heikki.Mustonen@kymp.net)

Standard Tuning


Start your Engines...
|3x------------------------------------|1x-----------------------------------|
|--------------------------------------|-------------------------------------|
|--------------------------------------|-4-----------------------------------|
|-5-------5-------5--------------------|-4-----------------------------------|
|-5-------5-------5--------------------|-2-----------------------------------|
|-3-0-0-0-3-0-0-0-3-0-0-0--6--5--3--0--|-------------------------------------|

Riff 1
|----------------------------------------------------------------------------|
|----------------------------------------------------------------------------|
|----------------------------------------------------------------------------|
|----------------------------------------------------------------------------|
|----------------------------------------------------------------------------|
|-0-0-0-0-0-0-0-0-0-0-0-0-0-0-0-0-0-0-0-0-0-0-0-0-0-0-0-0-0-0-0-0-0-0-0-0-0-0|

|----------------------------------------------------------------------------|
|----------------------------------------------------------------------------|
|----------------------------------------------------------------------------|
|----------------------------------------------------------------------------|
|----------------------------------------------------------------------------|
|-3-3-3-3-3-3-3-3--7-7-7-7-7-7-7-7-0-0-0-0-0-0-0-0-0-0-0-0-0-0-0-0-0-0-0-0-0-|

Chorus
|----------------------------------------------------------------------------|
|----------------------------------------------------------------------------|
|----5-----7----5--7---------5----7------5--7----4---------------------------|
|-2--5--5--7--2-5--7------2--5--5-7---2--5--7----4---------------------------|
|-2--3--5--5--2-3--5------2--3--5-5---2--3--5----2---------------------------|
|-0-----3-----0-----------0-----3-----0--------------------------------------|

Riff 2
|----------------------------------------------------------------------------|
|----------------------------------------------------------------------------|
|----------------------------------------------------------------------------|
|-----------------------------5------------------3----------------5----------|
|-----------------------------5------------------3----------------5----------|
|-0-0-0-0-0-0-0-0-0-0-0-0---0-3--0-0-0-0-0-0---0-1--0-0-0-0-0-0-0-3----------|

|----------------------------------------------------------------------------|
|----------------------------------------------------------------------------|
|----------------------------------------------------------------------------|
|----------------------------------------------------------------------------|
|----------------------------------------------------------------------------|
|-3-3-3-3-3-3-3-3--7-7-7-7-7-7-7-7-0-0-0-0-0-0-0-0-0-0-0-0-0-0-0-0-0-0-0-0-0-|

Play Chorus

Play Riff 2

Play Chorus

Solo
|------------------------------------------19(21)-|-15-----22-19----22-19----|
|-------------------------------------------------|--------------22-------22-|
|-------------------------------------------------|-12-----------------------|
|-------------------------------------------------|--------------------------|
|-------------------------------------------------|--------------------------|
|-0--0--0-0-0---0(bend-down)--0-0-0-0-0-0---------|--------------------------|

|-22-19----22-19------19----------------------------------|-11-12-11-12-11-12|
|-------22-------22------22-20-19-------------------------|------------------|
|---------------------------------21-19-18----------------|------------------|
|------------------------------------------21-19-17-------|------------------|
|---------------------------------------------------21-19-|------------------|
|---------------------------------------------------------|------------------|

|-15-14h15p14----15-14h15p14----14-15----------------------------------------|
|-------------17-------------17----------------------------------------------|
|----------------------------------------0////////-2////////-----------------|
|----------------------------------------------------------------------------|
|----------------------------------------------------------------------------|
|----------------------------------------------------------------------------|

|-19-19-19-19-19-19--23-19--23-19--23-19---24-24-24-24-24-24-24(26)-24(26)---|
|----------------------------------------------------------------------------|
|----------------------------------------------------------------------------|
|----------------------------------------------------------------------------|
|----------------------------------------------------------------------------|
|----------------------------------------------------------------------------|

|-24(26)-24(26)-24-24-24-23-23-23-20-20-20-19-19-19-17-17-17-15-15-15-14-14--|
|----------------------------------------------------------------------------|
|----------------------------------------------------------------------------|
|----------------------------------------------------------------------------|
|----------------------------------------------------------------------------|
|----------------------------------------------------------------------------|

|----------|-------------------------------17-19-20-19-17--------------------|
|-17-16-13-|----------------------17-19-20----------------20-19-17-----------|
|----------|-------------16-17-19----------------------------------19-17-16--|
|----------|----16-17-19-----------------------------------------------------|
|----------|-19--------------------------------------------------------------|
|----------|-----------------------------------------------------------------|

|------------------------|-17-12-15-12-17-12-15-12---------------------------|
|-20-17----20-17----17~--|-------------------------15-12-----17(19)-15-17-15-|
|-------19-------19------|-------------------------------14------------------|
|------------------------|---------------------------------------------------|
|------------------------|---------------------------------------------------|
|------------------------|---------------------------------------------------|

|-----------|-----------------------------------------|-15-18-15-------------|
|----15-----|--4---4---4---4---4----------------------|----------18-15-------|
|-16----16--|----3---3---3---3---3---4-2-----------4~-|----------------17-15-|
|-----------|----------------------------5-4-2-4-5----|----------------------|
|-----------|-----------------------------------------|----------------------|
|-----------|-----------------------------------------|----------------------|

|----------------15-18--15(18)trill-19p15-18p15-19p15-18p15--12-15(17)-12----|
|----------15-18-------------------------------------------------------------|
|----15-17----------------------------------------------------------------14-|
|-17-------------------------------------------------------------------------|
|----------------------------------------------------------------------------|
|----------------------------------------------------------------------------|

|-------------|-22p19-22p19-20p19-22p19-20p19-22p19----15-14-12--------------|
|-15--\--12~--|-------------------------------------------------15-13-12-----|
|-------------|----------------------------------------------------------14--|
|-------------|--------------------------------------------------------------|
|-------------|--------------------------------------------------------------|
|-------------|--------------------------------------------------------------|

|--------------|-19p0-19p0-19p0-19p0-20p0-19p0-17p0-15p0-|-17(19)-br-15-17-15|
|--------------|-----------------------------------------|-------------------|
|-12-10--------|-----------------------------------------|-------------------|
|-------14-12--|-----------------------------------------|-------------------|
|--------------|-----------------------------------------|-------------------|
|--------------|-----------------------------------------|-------------------|

|----------------------------14-15-14--15~-----------------------------------|
|-17--17(19)-br-15-17-15-----------------------------------------------------|
|------------------------16--------------------------------------------------|
|----------------------------------------------------------------------------|
|----------------------------------------------------------------------------|
|----------------------------------------------------------------------------|

The Solo Backround:
Play this 3 times

|4x------------------------|1x-----------------------------------------------|
|--------------------------|-------------------------------------------------|
|--------------------------|-------------------------------------------------|
|--------------------------|-------------------------------------------------|
|--------------------------|-------------------------------------------------|
|-0-0-0-0-3-2-0-3-2-0-3-2--|-3-3-3-3-3-3-7-7-7-7-7-7-0-0-0-0-0-0-0-0---------|

Play Riff 2

Play Chorus 2x

Play Intro Riff
  development and support by
dmitry ivanov