rock
 
|tablatures   |lyrics   |discussion forums   |more tabs @ XGuitar.com

Manowar tabs

Wheels Of Fire bass tab

G||--------------------------------|-----------------------------|
D||--------------------------------|-----------------------------|
A||--------------------------------|-----------------------------|
E||--3--0-0-0-0-0-0-3--0-0-0-0-0-0-|--3--0-0-0-0-0-0-6--5--3--0--|



--------------------------------|-----------------------------|
--------------------------------|-----------------------------|
--------------------------------|-----------------------------|
--3--0-0-0-0-0-0-3--0-0-0-0-0-0-|--3--0-0-0-0-0-0-6--5--3--0--|



--------------------------------|-----------------------------|
--------------------------------|-----------------------------|
--------------------------------|-----------------------------|
--3--0-0-0-0-0-0-3--0-0-0-0-0-0-|--3--0-0-0-0-0-0-6--5--3--0--|



--------------------------------|-------------------|
--------------------------------|-------------------|
--------------------------------|--2----------------|
--3--0-0-0-0-0-0-3--0-0-0-0-0-0-|-------------------|



----------------------------------|----------------------------------|
----------------------------------|----------------------------------|
----------------------------------|----------------------------------|
--0-0-0-0-0-0-0-0-0-0-0-0-0-0-0-0-|--0-0-0-0-0-0-0-0-0-0-0-0-0-0-0-0-|



----------------------------------|----------------------------------|
----------------------------------|----------------------------------|
----------------------------------|----------------------------------|
--0-0-0-0-0-0-0-0-0-0-0-0-0-0-0-0-|--0-0-0-0-0-0-0-0-0-0-0-0-0-0-0-0-|



----------------------------------|----------------------------------|
----------------------------------|----------------------------------|
----------------------------------|----------------------------------|
--0-0-0-0-0-0-0-0-0-0-0-0-0-0-0-0-|--0-0-0-0-0-0-0-0-0-0-0-0-0-0-0-0-|



----------------------------------|----------------------------------|
----------------------------------|----------------------------------|
----------------------------------|----------------------------------|
--3-3-3-3-3-3-3-3-3-3-3-3-3-3-3-3-|--7-7-7-7-7-7-7-7-7-7-7-7-7-7-7-7-|



----------------------------------|----------------------------------|
----------------------------------|----------------------------------|
----------------------------------|----------------------------------|
--0-0-0-0-0-0-0-0-0-0-0-0-0-0-0-0-|--0-0-0-0-0-0-0-0-0-0-0-0-0-0-0-0-|



--------------------------|--------------------------|
--------------------------|--------------------------|
--------------3--3--3--3--|--------------5--5--5--5--|
--0--0--0--0--------------|--3--3--3--3--------------|



--------------------------|--------------------------|
--------------------------|--------------------------|
--------------3--3--3--3--|--5--5--5--5--5--5--5--5--|
--0--0--0--0--------------|--------------------------|



--------------------------|--------------------------|
--------------------------|--------------------------|
--------------3--3--3--3--|--------------5--5--5--5--|
--0--0--0--0--------------|--3--3--3--3--------------|



--------------------------|-------------------|-------------------|
--------------------------|-------------------|-------------------|
--------------3--3--3--3--|--5----------------|--2----------------|
--0--0--0--0--------------|-------------------|-------------------|



----------------------------------|----------------------------------|
----------------------------------|----------------------------------|
----------------------------------|----------------------------------|
--0-0-0-0-0-0-0-0-0-0-0-0-0-0-0-0-|--0-0-0-0-0-0-0-0-0-0-0-0-0-0-0-0-|



----------------------------------|-------------------------------|
----------------------------------|-------------------------------|
----------------------------------|-------------------------------|
--0-0-0-0-0-0-0-0-0-0-0-0-0-0-0-0-|--0-0-0-0-0-0-0-0-0-0-0-0-3----|



----------------------------------|----------------------------------|
----------------------------------|----------------------------------|
----------------------------------|----------------------------------|
--0-0-0-0-0-0-0-0-0-0-0-0-0-0-0-0-|--0-0-0-0-0-0-0-0-0-0-0-0-0-0-0-0-|



----------------------------------|-------------------------------|
----------------------------------|-------------------------------|
----------------------------------|-------------------------------|
--0-0-0-0-0-0-0-0-0-0-0-0-0-0-0-0-|--0-0-0-0-0-0-0-0-0-0-0-0-1----|



----------------------------------|----------------------------------|
----------------------------------|----------------------------------|
----------------------------------|----------------------------------|
--0-0-0-0-0-0-0-0-0-0-0-0-0-0-0-0-|--0-0-0-0-0-0-0-0-0-0-0-0-0-0-0-0-|



----------------------------------|-------------------------------|
----------------------------------|-------------------------------|
----------------------------------|-------------------------------|
--0-0-0-0-0-0-0-0-0-0-0-0-0-0-0-0-|--0-0-0-0-0-0-0-0-0-0-0-0-3----|



----------------------------------|----------------------------------|
----------------------------------|----------------------------------|
----------------------------------|----------------------------------|
--0-0-0-0-0-0-0-0-0-0-0-0-0-0-0-0-|--0-0-0-0-0-0-0-0-0-0-0-0-0-0-0-0-|



----------------------------------|----------------------------------|
----------------------------------|----------------------------------|
----------------------------------|----------------------------------|
--3-3-3-3-3-3-3-3-3-3-3-3-3-3-3-3-|--7-7-7-7-7-7-7-7-7-7-7-7-7-7-7-7-|



----------------------------------|----------------------------------|
----------------------------------|----------------------------------|
----------------------------------|----------------------------------|
--0-0-0-0-0-0-0-0-0-0-0-0-0-0-0-0-|--0-0-0-0-0-0-0-0-0-0-0-0-0-0-0-0-|



--------------------------|--------------------------|
--------------------------|--------------------------|
--------------3--3--3--3--|--------------5--5--5--5--|
--0--0--0--0--------------|--3--3--3--3--------------|



--------------------------|--------------------------|
--------------------------|--------------------------|
--------------3--3--3--3--|--5--5--5--5--5--5--5--5--|
--0--0--0--0--------------|--------------------------|



--------------------------|--------------------------|
--------------------------|--------------------------|
--------------3--3--3--3--|--------------5--5--5--5--|
--0--0--0--0--------------|--3--3--3--3--------------|



--------------------------|--------------------------|-------------------|
--------------------------|--------------------------|-------------------|
--------------3--3--3--3--|--5--5--5--5--5--5--5--5--|--2----------------|
--0--0--0--0--------------|--------------------------|-------------------|



----------------------------------|----------------------------------|
----------------------------------|----------------------------------|
----------------------------------|----------------------------------|
--0-0-0-0-0-0-0-0-0-0-0-0-0-0-0-0-|--0-0-0-0-0-0-0-0-0-0-0-0-0-0-0-0-|



----------------------------------|-------------------------------|
----------------------------------|-------------------------------|
----------------------------------|-------------------------------|
--0-0-0-0-0-0-0-0-0-0-0-0-0-0-0-0-|--0-0-0-0-0-0-0-0-0-0-0-0-3----|



----------------------------------|----------------------------------|
----------------------------------|----------------------------------|
----------------------------------|----------------------------------|
--0-0-0-0-0-0-0-0-0-0-0-0-0-0-0-0-|--0-0-0-0-0-0-0-0-0-0-0-0-0-0-0-0-|



----------------------------------|-------------------------------|
----------------------------------|-------------------------------|
----------------------------------|-------------------------------|
--0-0-0-0-0-0-0-0-0-0-0-0-0-0-0-0-|--0-0-0-0-0-0-0-0-0-0-0-0-1----|



----------------------------------|----------------------------------|
----------------------------------|----------------------------------|
----------------------------------|----------------------------------|
--0-0-0-0-0-0-0-0-0-0-0-0-0-0-0-0-|--0-0-0-0-0-0-0-0-0-0-0-0-0-0-0-0-|



----------------------------------|-------------------------------|
----------------------------------|-------------------------------|
----------------------------------|-------------------------------|
--0-0-0-0-0-0-0-0-0-0-0-0-0-0-0-0-|--0-0-0-0-0-0-0-0-0-0-0-0-3----|



----------------------------------|----------------------------------|
----------------------------------|----------------------------------|
----------------------------------|----------------------------------|
--0-0-0-0-0-0-0-0-0-0-0-0-0-0-0-0-|--0-0-0-0-0-0-0-0-0-0-0-0-0-0-0-0-|



----------------------------------|----------------------------------|
----------------------------------|----------------------------------|
----------------------------------|----------------------------------|
--3-3-3-3-3-3-3-3-3-3-3-3-3-3-3-3-|--7-7-7-7-7-7-7-7-7-7-7-7-7-7-7-7-|



----------------------------------|----------------------------------|
----------------------------------|----------------------------------|
----------------------------------|----------------------------------|
--0-0-0-0-0-0-0-0-0-0-0-0-0-0-0-0-|--0-0-0-0-0-0-0-0-0-0-0-0-0-0-0-0-|



--------------------------|--------------------------|
--------------------------|--------------------------|
--------------3--3--3--3--|--------------5--5--5--5--|
--0--0--0--0--------------|--3--3--3--3--------------|



--------------------------|--------------------------|
--------------------------|--------------------------|
--------------3--3--3--3--|--5--5--5--5--5--5--5--5--|
--0--0--0--0--------------|--------------------------|



--------------------------|--------------------------|
--------------------------|--------------------------|
--------------3--3--3--3--|--------------5--5--5--5--|
--0--0--0--0--------------|--3--3--3--3--------------|



--------------------------|-------------------|-------------------|
--------------------------|-------------------|-------------------|
--------------3--3--3--3--|--5----------------|--2----------------|
--0--0--0--0--------------|-------------------|-------------------|



------------------------------|------------------|
------------------------------|------------------|
------------------------------|------------------|
--0-0-0-0-0--0--0-0-0-0-0--0--|------------------|



------------------------------|----|----------------------------------|
------------------------------|----|----------------------------------|
------------------------------|----|----------------------------------|
--0-0-0-0-0--0--0-0-0-0-0--0--|----|--0-0-0-0-0-0-0-0-0-0-0-0-0-0-0-0-|



--------------------------|----------------------------------|
--------------------------|----------------------------------|
--------------------------|----------------------------------|
--3--2--0--3--2--0--3--0--|--0-0-0-0-0-0-0-0-0-0-0-0-0-0-0-0-|



--------------------------|----------------------------------|
--------------------------|----------------------------------|
--------------------------|----------------------------------|
--3--2--0--3--2--0--3--0--|--0-0-0-0-0-0-0-0-0-0-0-0-0-0-0-0-|



--------------------------|----------------------------------|
--------------------------|----------------------------------|
--------------------------|----------------------------------|
--3--2--0--3--2--0--3--0--|--0-0-0-0-0-0-0-0-0-0-0-0-0-0-0-0-|



--------------------------|----------------------------------|
--------------------------|----------------------------------|
--------------------------|----------------------------------|
--3--2--0--3--2--0--3--0--|--3-3-3-3-3-3-3-3-3-3-3-3-3-3-3-3-|



----------------------------------|----------------------------------|
----------------------------------|----------------------------------|
----------------------------------|----------------------------------|
--7-7-7-7-7-7-7-7-7-7-7-7-7-7-7-7-|--0-0-0-0-0-0-0-0-0-0-0-0-0-0-0-0-|



----------------------------------|--------------------------|
----------------------------------|--------------------------|
----------------------------------|--------------------------|
--0-0-0-0-0-0-0-0-0-0-0-0-0-0-0-0-|--3--2--0--3--2--0--3--0--|



----------------------------------|--------------------------|
----------------------------------|--------------------------|
----------------------------------|--------------------------|
--0-0-0-0-0-0-0-0-0-0-0-0-0-0-0-0-|--3--2--0--3--2--0--3--0--|



----------------------------------|--------------------------|
----------------------------------|--------------------------|
----------------------------------|--------------------------|
--0-0-0-0-0-0-0-0-0-0-0-0-0-0-0-0-|--3--2--0--3--2--0--3--0--|



----------------------------------|--------------------------|
----------------------------------|--------------------------|
----------------------------------|--------------------------|
--0-0-0-0-0-0-0-0-0-0-0-0-0-0-0-0-|--3--2--0--3--2--0--3--0--|



----------------------------------|----------------------------------|
----------------------------------|----------------------------------|
----------------------------------|----------------------------------|
--3-3-3-3-3-3-3-3-3-3-3-3-3-3-3-3-|--7-7-7-7-7-7-7-7-7-7-7-7-7-7-7-7-|



----------------------------------|----------------------------------|
----------------------------------|----------------------------------|
----------------------------------|----------------------------------|
--0-0-0-0-0-0-0-0-0-0-0-0-0-0-0-0-|--0-0-0-0-0-0-0-0-0-0-0-0-0-0-0-0-|



--------------------------|----------------------------------|
--------------------------|----------------------------------|
--------------------------|----------------------------------|
--3--2--0--3--2--0--3--0--|--0-0-0-0-0-0-0-0-0-0-0-0-0-0-0-0-|



--------------------------|----------------------------------|
--------------------------|----------------------------------|
--------------------------|----------------------------------|
--3--2--0--3--2--0--3--0--|--0-0-0-0-0-0-0-0-0-0-0-0-0-0-0-0-|



--------------------------|----------------------------------|
--------------------------|----------------------------------|
--------------------------|----------------------------------|
--3--2--0--3--2--0--3--0--|--0-0-0-0-0-0-0-0-0-0-0-0-0-0-0-0-|



--------------------------|----------------------------------|
--------------------------|----------------------------------|
--------------------------|----------------------------------|
--3--2--0--3--2--0--3--0--|--3-3-3-3-3-3-3-3-3-3-3-3-3-3-3-3-|



----------------------------------|----------------------------------|
----------------------------------|----------------------------------|
----------------------------------|----------------------------------|
--7-7-7-7-7-7-7-7-7-7-7-7-7-7-7-7-|--0-0-0-0-0-0-0-0-0-0-0-0-0-0-0-0-|



----------------------------------|----------------------------------|
----------------------------------|----------------------------------|
----------------------------------|----------------------------------|
--0-0-0-0-0-0-0-0-0-0-0-0-0-0-0-0-|--0-0-0-0-0-0-0-0-0-0-0-0-0-0-0-0-|



-------------------------------|----------------------------------|
-------------------------------|----------------------------------|
-------------------------------|----------------------------------|
--0-0-0-0-0-0-0-0-0-0-0-0-3----|--0-0-0-0-0-0-0-0-0-0-0-0-0-0-0-0-|



----------------------------------|----------------------------------|
----------------------------------|----------------------------------|
----------------------------------|----------------------------------|
--0-0-0-0-0-0-0-0-0-0-0-0-0-0-0-0-|--0-0-0-0-0-0-0-0-0-0-0-0-0-0-0-0-|



-------------------------------|----------------------------------|
-------------------------------|----------------------------------|
-------------------------------|----------------------------------|
--0-0-0-0-0-0-0-0-0-0-0-0-1----|--0-0-0-0-0-0-0-0-0-0-0-0-0-0-0-0-|



----------------------------------|----------------------------------|
----------------------------------|----------------------------------|
----------------------------------|----------------------------------|
--0-0-0-0-0-0-0-0-0-0-0-0-0-0-0-0-|--0-0-0-0-0-0-0-0-0-0-0-0-0-0-0-0-|



-------------------------------|----------------------------------|
-------------------------------|----------------------------------|
-------------------------------|----------------------------------|
--0-0-0-0-0-0-0-0-0-0-0-0-3----|--0-0-0-0-0-0-0-0-0-0-0-0-0-0-0-0-|



----------------------------------|----------------------------------|
----------------------------------|----------------------------------|
----------------------------------|----------------------------------|
--0-0-0-0-0-0-0-0-0-0-0-0-0-0-0-0-|--3-3-3-3-3-3-3-3-3-3-3-3-3-3-3-3-|



----------------------------------|----------------------------------|
----------------------------------|----------------------------------|
----------------------------------|----------------------------------|
--7-7-7-7-7-7-7-7-7-7-7-7-7-7-7-7-|--0-0-0-0-0-0-0-0-0-0-0-0-0-0-0-0-|



----------------------------------|--------------------------|
----------------------------------|--------------------------|
----------------------------------|--------------3--3--3--3--|
--0-0-0-0-0-0-0-0-0-0-0-0-0-0-0-0-|--0--0--0--0--------------|



--------------------------|--------------------------|
--------------------------|--------------------------|
--------------5--5--5--5--|--------------3--3--3--3--|
--3--3--3--3--------------|--0--0--0--0--------------|



--------------------------|--------------------------|
--------------------------|--------------------------|
--5--5--5--5--5--5--5--5--|--------------3--3--3--3--|
--------------------------|--0--0--0--0--------------|



--------------------------|--------------------------|
--------------------------|--------------------------|
--------------5--5--5--5--|--------------3--3--3--3--|
--3--3--3--3--------------|--0--0--0--0--------------|



--------------------------|--------------------------|
--------------------------|--------------------------|
--5--5--5--5--5--5--5--5--|--------------3--3--3--3--|
--------------------------|--0--0--0--0--------------|



--------------------------|--------------------------|
--------------------------|--------------------------|
--------------5--5--5--5--|--------------3--3--3--3--|
--3--3--3--3--------------|--0--0--0--0--------------|



--------------------------|--------------------------|
--------------------------|--------------------------|
--5--5--5--5--5--5--5--5--|--------------3--3--3--3--|
--------------------------|--0--0--0--0--------------|



--------------------------|--------------------------|-------------------|
--------------------------|--------------------------|-------------------|
--------------5--5--5--5--|--------------3--3--3--3--|--5----------------|
--3--3--3--3--------------|--0--0--0--0--------------|-------------------|



-------------------|--------------------------------|
-------------------|--------------------------------|
--2----------------|--------------------------------|
-------------------|--3--0-0-0-0-0-0-3--0-0-0-0-0-0-|



-----------------------------|--------------------------------|
-----------------------------|--------------------------------|
-----------------------------|--------------------------------|
--3--0-0-0-0-0-0-6--5--3--0--|--3--0-0-0-0-0-0-3--0-0-0-0-0-0-|



-----------------------------|--------------------------------|
-----------------------------|--------------------------------|
-----------------------------|--------------------------------|
--3--0-0-0-0-0-0-6--5--3--0--|--3--0-0-0-0-0-0-3--0-0-0-0-0-0-|



-----------------------------|------------------------------|------------------|
-----------------------------|------------------------------|------------------|
-----------------------------|------------------------------|------------------|
--3--0-0-0-0-0-0-6--5--3--0--|--0-0-0-0-0--0--0-0-0-0-0--0--|------------------|



------------------------------|----||
------------------------------|----||
------------------------------|----||
--0-0-0-0-0--0--0-0-0-0-0--0--|----||
  development and support by
dmitry ivanov