rock
 
|tablatures   |lyrics   |discussion forums   |more tabs @ XGuitar.com

Manowar tabs

Violence And Bloodshed guitar tab

Manowar: Violence and Blooshed(Fighting the World)
Transcribed by HeXa(Heikki.Mustonen@kymp.net)

Standard Tuning


Sirens...

Riff 1
Bass
|----------------------------------------------------------------------------|
|----------------------------------------------------------------------------|
|-----7-7-----7-7-----7-7----------------------------------------------------|
|-0-0-----0-0-----0-0-----etc...---------------------------------------------|

Riff 2 2x
|-------------------------------------------------------15(bend--down)-------|
|----------------------------------------------------------------------------|
|-------------------------------------------------------12(bend-down)--------|
|----------0-----------------2-------0---------------------------------------|
|--------2---2-0-----2-0---0-------2---2-0-----2-0---0-----------------------|
|-12\--0---------3-0-----3-------0---------3-0-----3-------------------------|

Play Riff 1

Riff 3:
 Are you  Rea-Dy?
|----------------------------------------------------------------------------|
|----------------------------------------------------------------------------|
|-7---10---7---10------------------------------------------------------------|
|-7---10---7---10------------------------------------------------------------|
|-5---8----5---8-------------------------------------------------------------|
|-----------------0-0-0-0-0-0-0-0-0-0-0--------------------------------------|

Play Riff 1

Riff 4:

|2x----------------|---------------------------------------------------------|
|------------------|-violence...---------------------------------------------|
|-7---10----10--2--|-2-------2-----------------------------------------------|
|-7---10----10--2--|-2-------2-----------------------------------------------|
|-5---8-----8---0--|-0-------0-----------------------------------------------|
|------------------|---------------------------------------------------------|

Play Riff 2(Backround is Riff 1)

Play Riff 5: same as Riff 1 with Just Strumming E (and D I quess)

Play Riff 3

Play Riff 5

Play Riff 4

Solo(Riff 1)
|-----------------------------------14(16)-12(14)trill\/\/\---------15\------|
|-12(15)trill-(Bend-down-and-raise)-------------------------10(11)-----------|
|----------------------------------------------------------------------------|
|----------------------------------------------------------------------------|
|----------------------------------------------------------------------------|
|----------------------------------------------------------------------------|
                use wah
|12(15)trill-\-------------------------------15-12----12---------------------|
|---------------15(17)--12-15-12----15-12----------15----15-12---------------|
|--------------------------------14-------14-------------------14-12----12---|
|--------------------------------------------------------------------14----14|
|----------------------------------------------------------------------------|
|----------------------------------------------------------------------------|
                                            T       T       T       T
|--------------------------------------12---12p10p7-12p10p7-12p10p7-12p10p7--|
|-----------------------------13(15)---12------------------------------------|
|---------------12(14)-12(14)------------------------------------------------|
|-12-------------------------------------------------------------------------|
|----14\/\/\/\---------------------------------------------------------------|
|----------------------------------------------------------------------------|

|----------------------------------------------------------------------------|
|----------------------------------------------------------------------------|
|----------------------------------------------------------------------------|
|----------------------------------------------------------------------------|
|----------------------------------------------------------------------------|
|----------------------------------------------------------------------------

|-15-12----12------------0\--21(21)----------15-12----15-12----15(17)-15(17)-|
|-------15----15-12--------------------------------15-------15---------------|
|--------------------14------------------------------------------------------|
|----------------------------------------------------------------------------|
|----------------------------------------------------------------------------|
|------------------------------------0\--------------------------------------|

|-15(17)-15(17)-20(22)-20(22)------------------------------------------------|
|----------------------------------------------------------------------------|
|----------------------------------------------------------------------------|
|--------------------------------Some-strange-voices-made-with-wah...--------|
|----------------------------------------------------------------------------|
|------------------------------0---------------------------------------------|

|-------------------9---8---7---6---5---4---3---2----------------------------|
|-------------8-\-----8---7---6---5---4---3---2---1-strange-thing-again------|
|----------------------------------------------------------------------------|
|-0(2)trill------------------------------------------------------------------|
|----------------------------------------------------------------------------|
|----------------------------------------------------------------------------|

|-13(15)-13(15)-fade-out...--------------------------------------------------|
|----------------------------------------------------------------------------|
|----------------------------------------------------------------------------|
|----------------------------------------------------------------------------|
|----------------------------------------------------------------------------|
|----------------------------------------------------------------------------|
  development and support by
dmitry ivanov