rock
 
|tablatures   |lyrics   |discussion forums   |more tabs @ XGuitar.com

Manowar tabs

Thor (The Powerhead) guitar tab

                            THOR (THE POWERHEAD)
                                 by MANOWAR

Tabbed by: Manoel Cristiano de Arruda (Sao Paulo-Brazil)
E-mail: manoelmanowar@yahoo.com

Look for the solo at the end of this tab

Intro: (is played three times)
e|--------------------------------|--------------------------------------|
b|--------------------------------|--------------------------------------|
g|--------------------------------|--------------------------------------|
D|--2-2-2--2-2-2--2-2-2-7-9-11-12-|--2-2-2--2-2-2--2-2-2-7-9-11-12---5-7-|
A|--2-2-2--2-2-2--2-2-2-5-7-9--10-|--2-2-2--2-2-2--2-2-2-5-7-9--10---3-5-|
E|--0-0-0--0-0-0--0-0-0-----------|--0-0-0--0-0-0--0-0-0-----------------|

Conclusion:                 Verse one: (is played six times)
e|-------------------------|---------------------------------------------|
b|-------------------------|---------------------------------------------|
g|-------------------------|---------------------------------------------|
D|--7-9-7-5-7-4--4-5-4-5-7-|--9--9-7-5-5-5-5-5-5-5-5-7-7-7-7-7-7-7-7-----|
A|--5-7-5-3-5-2--2-3-2-3-5-|--7--7-5-3-3-3-3-3-3-3-3-5-5-5-5-5-5-5-5-----|
E|-------------------------|---------------------------------------------|
                                   PM===============   =============

Chorus: (Guitar one, is played two times)
e|----------------------T----T----T----T---------------------------------|
b|--5--5-5-7-8-8-10-8-7(8)-7(8)-7(8)-7(8)--------------------------------|
g|-----------------------------------------------------------------------|
D|-----------------------------------------------------------------------|
A|-----------------------------------------------------------------------|
E|-----------------------------------------------------------------------|

e|---------------------T----T----T----T----------------------------------|
b|--3--3-3-5-7-7-8-7-5(7)-5(7)-5(7)-5(7)---------------------------------|
g|-----------------------------------------------------------------------|
D|-----------------------------------------------------------------------|
A|-----------------------------------------------------------------------|
E|-----------------------------------------------------------------------|

Chorus: 
(Guitar two, 
is played two times too)   Verse two:
e|------------------------|----------------------------------------------|
b|------------------------|----------------------------------------------|
g|------------------------|----------------------------------------------|
D|--9------------7--------|--5-5-5-5-5-5-5-5--7-7-7-7-7-7-7-7------------|
A|--7------------5--------|--3-3-3-3-3-3-3-3--5-5-5-5-5-5-5-5------------|
e|------------------------|----------------------------------------------|

e|-----------------------------------------------------------------------|
b|-----------------------------------------------------------------------|
g|-----------------------------------------------------------------------|
D|------------------------------------2--2--2--2--2-2-2--2---------------|
A|--3-3-3-3-3-3-3-3--5-5-5-5-5-5-5-5--2--2--2--2--2-2-2--2---------------|
E|--1-1-1-1-1-1-1-1--3-3-3-3-3-3-3-3--0--0--0--0--0-0-0--0---------------|

End: (is played three times)
e|---------------------------------|-------------------------------------|
b|---------------------------------|-------------------------------------|
g|---------------------------------|-------------------------------------|
D|--2-2-2--2-2-2--2-2-2--7-5-4-3-2-|--2-2-2--2-2-2--2-2-2--7-5-4-3-2-----|
A|--2-2-2--2-2-2--2-2-2--5-3-2-1-0-|--2-2-2--2-2-2--2-2-2--5-3-2-1-0-3-5-|
E|--0-0-0--0-0-0--0-0-0------------|--0-0-0--0-0-0--0-0-0------------1-3-|

Chords:

Verse one:

E5                          E5 D5 
Black clouds on the horizon          
C5                  D5
  Great thunder and burning rain 
E5                   E5 D5
His chariot pounding, 
C5            D5
  I heard the heaven scream his name
E5    E5 D5
OhOhOhOhhhhhhhhhhhhhhhh
C5                       D5
  OhhhhhhhhhhhhhOhhhhhhhhOhhhhhhhhhhhOhhhhhhhh
E5                      E5 D5
I watched as he shouted
C5                  D5
  To the giants who died that day 
E5                         E5 D5
He held up his hammer high 
C5              D5
  And called to Odin for a sing 
E5    E5 D5
OhOhOhOhhhhhhhhhhhhhhhh
C5                       D5
  OhhhhhhhhhhhhhOhhhhhhhhOhhhhhhhhhhhOhhhhhhhh
E5
Thor the mighty, Thor the brave
D5
Crush the infidels in your way 
E5
By your hammer let none be saved 
D5
Live to die on that final day 
C5                 D5
Gods, monsters and men 
F5          G5
  We'll die togheter
       E5
In the end


Author/Artist: Manowar
Title: Thor (The Powerhead) - Guitar Solo
Album: Sign Of The Hammer
Transcribed by: Manoel Manowar
Email: manoelmanowar@yahoo.com

If you have any correction, please send it to me by e-mail. Hail to
all the brothers of metal all over the world and at Brazil !!! Let's keep the
fight for true metal !!!

Visit my home-page at: "http://www.truemetal.org/manowarkill"

                                                                       
|-|--3--2--3--2--3--2--3--2--3--2--3--2--3--2--3--2--3--2--3--2--3--2---
|-|---------------------------------------------------------------------
|-|---------------------------------------------------------------------
|-|---------------------------------------------------------------------
|-|---------------------------------------------------------------------
|-|---------------------------------------------------------------------
1 60                                                                   

                                                                     
3--2--3--2--3--2--3--2--3--2--|--7--6--7--6--7--6--7--6--7--6--7--6-----
------------------------------|-----------------------------------------
------------------------------|-----------------------------------------
------------------------------|-----------------------------------------
------------------------------|-----------------------------------------
------------------------------|-----------------------------------------
                              61                                     

                                                                     
7--6--7--6--7--6--7--6--7--6--7--6--7--6--7--6--7--6--7--6--|--12-11----
------------------------------------------------------------|-----------
------------------------------------------------------------|-----------
------------------------------------------------------------|-----------
------------------------------------------------------------|-----------
------------------------------------------------------------|-----------
                                                            62       

                                                                     
12-11-12-11-12-11-12-11-12-11-12-11-12-11-12-11-12-11-12-11-12-11-12----
------------------------------------------------------------------------
------------------------------------------------------------------------
------------------------------------------------------------------------
------------------------------------------------------------------------
------------------------------------------------------------------------
                                                                     

                                                                     
11-12-11-12-11-12-11-|--17-16-17-16-17-16-17-16-17-16-17-16-17-16-17----
---------------------|--------------------------------------------------
---------------------|--------------------------------------------------
---------------------|--------------------------------------------------
---------------------|--------------------------------------------------
---------------------|--------------------------------------------------
                     63                                              

                           B2                                         
16-17-16-17-16-17-16-17-16-17--------|--20----20----20-19-17------------
--------------------------------18---|-----------------------20-18-17---
-------------------------------------|----------------------------------
-------------------------------------|----------------------------------
-------------------------------------|----------------------------------
-------------------------------------|----------------------------------
                                     64                               

                                                                     
------------------------------|-----------------------------------------
------------------------------|-----------------------------------------
19-17----16-------------------|-----------------------------------------
------19----19-17-15----------|-----------------14----------14----------
---------------------19-17-19-|--17-19-17-15-17----17-15-17----17-15----
------------------------------|-----------------------------------------
                              65                                     

                                                                     
------------------------------------------------------------|-----------
------------------------------------------------------------|-----------
------------------------------------------------------------|-----------
---14-------14-15-14-12-14-15-14-12-14-15-14-12-14-15-14-12-|--12-14----
17----17-15-------------------------------------------------|-----------
------------------------------------------------------------|-----------
                                                            66       

                                                                     
---------------10-12-10-8--10-8--7-----7--------------------------------
------10-12-13----------------------10----10-8--6--8--6--5-----5--3-----
10-12-------------------------------------------------------7-----------
------------------------------------------------------------------------
------------------------------------------------------------------------
------------------------------------------------------------------------
                     

                                                                       
-----------------3--5--7--8--10-12-10-8--10-8--7-----7------------------
--------3--5--6-----------------------------------10----10-8--6--8--6---
5--4-5------------------------------------------------------------------
------------------------------------------------------------------------
------------------------------------------------------------------------
------------------------------------------------------------------------
                                                               

                                                                     
------------------------------3--|--13-12-10----------------------------
5-----5--3-----------3--5--6-----|-----------13-12----------------------
---7--------5--4--5--------------|-----------------12-10-9-----9--10----
---------------------------------|--------------------------12----------
---------------------------------|--------------------------------------
---------------------------------|--------------------------------------
                                 67                                  

                                                   B2     
---8--7--5-----------------------------------------12---|
8-----------8--------------3--3--3--3--5--5--5--5-------|
---------------5--5--5--5-------------------------------|
--------------------------------------------------------|
--------------------------------------------------------|
--------------------------------------------------------|


Additional lyrics


God of thunder, God of rain 
Earth shaker who feels no pain 
The Powerhead of the universe 
Now send your never ending curse

I watched as he shouted 
To the giants who died that day 
He held up his hammer high 
And called to Odin, for a sign 

Thor the mighty, Thor the brave
Crush the infidels in your way 
By your hammer let none be saved 
Live to die on that final day 
Gods, monsters and men 
We'll die togheter in the end

Swing your hammer to crack the sky 
Lift your cape so that you might fly 
Back to Odin and the Gods on high 
And leave this mortal world

Thor the mighty, Thor the brave
Crush the infidels in your way 
By your hammer let none be saved 
Live to die on that final day 
Gods, monsters and men 
We'll die togheter in the end

  development and support by
dmitry ivanov